» » »

Slash - Paradise City Tabs

Artists:  A B C D E F G H I J K L M N O P Q R S T U V W X Y Z # 

Paradise City Tabs

(ver. 1) Click to play this song!
Slash
 Rating:
4.3/5 (29 votes)

 Paradise City  lessons Tabs too difficult? Try these video lessons and learn fast
 
                [Intro]
    Bb            F               C                 C
D#|-----1-------|-------1-------------------------|-------------------------------|
A#|---3---------|-----1---1-------------1---------|-------1----------1----------1-|
F#|-3---------0-|---2-------2---0-----0---0-------|-----0---0---0---0--0-------0--|
C#|-------------|-3-----------3-----2-------2---2-|---2-------3-2-2------2---2----|
G#|-------------|-----------------3-----------3---|-3-----------3----------3------|
D#|-------------|---------------------------------|-------------------------------|

    C                              Bb
D#|------------------------------|-----1-----1-----1-------------------|
A#|-----------1----------------1-|---3---3-------3---3---1-h3p1h3p1----|
F#|-0-------0---0-----0----0-0---|-3-------3---3-------3------------0h-|
C#|---2---2-------2--------------|-------------------------------------|
G#|-----3-----------3------------|-------------------------------------|
D#|------------------------------|-------------------------------------|

    F                               C
D#|---1---------1-----------------|-------------------------------|
A#|-----1-----1---1-------1-------|--------------1----------------|
F#|=2-------2-------2---2---2---0-|-------0------0----------------|
C#|-------3-----------3-------3---|---2h3---3----2----------------|
G#|-------------------------------|-3---------3--3----------------|
D#|-------------------------------|-------------------------------|

    G                              C
D#|------3-----3--------3--------|----------3-----3--------3--------|
A#|--------0-------0------0---0--|------------1-------1------1---1--|
F#|-0--------0-------0------0----|--------------0-------0------0----|
C#|-0----------------------------|-0h2---2--------------------------|
G#|------------------------------|-0h3---3--------------------------|
D#|-3----------------------------|----------------------------------|

    F9             C               G
D#|-------3-------------3--------|-----3-----3------------------------|
A#|-----1---1---1-----1---1---0--|-------0-------0-----0-----0--------|
F#|-----------2-------------0----|-0-------0-------0h2---0---------0--|
C#|-3--------------2-------------|-0---------------------------0h2----|
G#|----------------3-------------|------------------------------------|
D#|------------------------------|-3----------------------------------|

    G                              C
D#|------3-----3--------3--------|----------3-----3--------3--------|
A#|--------0-------0------0---0--|------------1-------1------1---1--|
F#|-0--------0-------0------0----|--------------0-------0------0----|
C#|-0----------------------------|-0h2---2--------------------------|
G#|------------------------------|-0h3---3--------------------------|
D#|-3----------------------------|----------------------------------|

    F9             C               G
D#|-------3-------------3--------|-----3-----3------------------------|
A#|-----1---1---1-----1---1---0--|-------0-------0-----0-----0--------|
F#|-----------2-------------0----|-0-------0-------0h2---0---------0--|
C#|-3--------------2-------------|-0---------------------------0h2----|
G#|----------------3-------------|------------------------------------|
D#|------------------------------|-3----------------------------------|            
Submit corrections


        Paradise City  lessons Hard to play? Try these video lessons and learn fast Paradise City  lessons
        
↑ Back to top | Tablatures and chords for acoustic guitar and electric guitar, ukulele, drums are parodies/interpretations of the original songs. You may use it for private study, scholarship, research or language learning purposes only