» » »

Slash - No More Heroes Tabs

Artists:  A B C D E F G H I J K L M N O P Q R S T U V W X Y Z # 

No More Heroes Tabs

(ver. 1) Click to play this song!
Slash
 Rating:
4.3/5 (26 votes)

 No More Heroes lessons Tabs too difficult? Try these video lessons and learn fast
 
                [Intro]

D#|---------------------------------------------------------------------------|
A#|----/9----------------8----------------/10--------/12--10----12------------|
F#|---------------------------------------------------------------------------|
C#|---------------------------------------------------------------------------|
G#|---------------------------------------------------------------------------|
D#|---------------------------------------------------------------------------|

D#|-------------------------------------------------------------------------------|
A#|----9----------------8------------------7---------------------9p7\5------------|
F#|-------------------------------------------------------------------------------|
C#|-------------------------------------------------------------------------------|
G#|-------------------------------------------------------------------------------|
D#|-----------------------------------------------------------------------1/12----|

D#|------------------------------------------------------------------------------------------------------|
A#|-------------12----------12----------12----------12---------10----------10----------14----14b16r14-12-|
F#|-------13----------13----------12----------12---------11----------11----------14----------------------|
C#|----------14----------14----------12----------12---------12----------12----------14-------------------|x2
G#|----------------14----------10----------10----------9----------12----------12----------12-------------|
D#|----12------------------------------------------------------------------------------------------------|




[Verse 1]

D#|---------------------------------------------------------------------------|
A#|---------------------------------------------------------------------------|
F#|--------------------------------------------------------2------------------|
C#|----9----------------12----------------7----------------2------------------|x2
G#|----7----------------10----------------5----------------0------------------|
D#|---------------------------------------------------------------------------|







[Bridge 1]

D#|------------------------------------------------------------------------------------------------------|
A#|-------------12----------12----------12----------12---------10----------10----------14----14b16r14-12-|
F#|-------13----------13----------12----------12---------11----------11----------14----------------------|
C#|----------14----------14----------12----------12---------12----------12----------14-------------------|
G#|----------------14----------10----------10----------9----------12----------12----------12-------------|
D#|----12------------------------------------------------------------------------------------------------|

D#|----------------------------------------------------------------------------------------------------------|
A#|------------12----------12----------12----------12---------10----------10----------14----14b16r14-12----14|
F#|------13----------13----------12----------12---------11----------11----------14----------------------14---|
C#|---------14----------14----------12----------12---------12----------12----------14------------------------|
G#|---------------14----------10----------10----------9----------12----------12----------12------------------|
D#|---12-----------------------------------------------------------------------------------------------------|

D#|----------------------|
A#|----------------------|
F#|----------------------|
C#|--------0--------0----|
G#|----0h2------0h2------|
D#|----------------------|




[Chorus 1]

D#|------------------------------------------------------------------------------------|
A#|----------------------------------------------------3-3-----------------------------|
F#|----------------------------------------------------2-2-2-2-------------------------|
C#|----9-9-9-9-----9-------9----------------5-5--------0-0-2-2------------0-------0----|x2
G#|----7-7-7-7-----7---9---7---9--10----5---3-3-5-5--------0-0--------0h2-----0h2------|
D#|--------------------7-------7--8-----3-------3-3------------------------------------|

D#|---------------------------------------------------------------------------|
A#|----/9----------------8----------------/10--------/12--10----12------------|
F#|---------------------------------------------------------------------------|
C#|---------------------------------------------------------------------------|
G#|---------------------------------------------------------------------------|
D#|---------------------------------------------------------------------------|





[Verse 2]

D#|---------------------------------------------------------------------------|
A#|----9-9-9-9-9-9-9-9-8-8-8-8-8-8-8-8-7-7-7-7-7-7-7-7-5-5-5-5-5-5-5-5--------|
F#|----9-9-9-9-9-9-9-9-7-7-7-7-7-7-7-7-7-7-7-7-7-7-7-7-6-6-6-6-6-6-6-6--------|
C#|----9-9-9-9-9-9-9-9-9-9-9-9-9-9-9-9-7-7-7-7-7-7-7-7-7-7-7-7-7-7-7-7--------|x2
G#|---------------------------------------------------------------------------|
D#|---------------------------------------------------------------------------|
        PM|-----------|   |-----------|   |-----------|   |-----------|



[Bridge 2]

D#|------------------------------------------------------------------------------------------------------|
A#|-------------12----------12----------12----------12---------10----------10----------14----14b16r14-12-|
F#|-------13----------13----------12----------12---------11----------11----------14----------------------|
C#|----------14----------14----------12----------12---------12----------12----------14-------------------|
G#|----------------14----------10----------10----------9----------12----------12----------12-------------|
D#|----12------------------------------------------------------------------------------------------------|

D#|----------------------------------------------------------------------------------------------------------|
A#|------------12----------12----------12----------12---------10----------10----------14----14b16r14-12----14|
F#|------13----------13----------12----------12---------11----------11----------14----------------------14---|
C#|---------14----------14----------12----------12---------12----------12----------14------------------------|
G#|---------------14----------10----------10----------9----------12----------12----------12------------------|
D#|---12-----------------------------------------------------------------------------------------------------|

D#|----------------------|
A#|----------------------|
F#|----------------------|
C#|--------0--------0----|
G#|----0h2------0h2------|
D#|----------------------|




[Chorus 2]

D#|------------------------------------------------------------------------------------|
A#|----------------------------------------------------3-3-----------------------------|
F#|----------------------------------------------------2-2-2-2-------------------------|
C#|----9-9-9-9-----9-------9----------------5-5--------0-0-2-2------------0-------0----|x2
G#|----7-7-7-7-----7---9---7---9--10----5---3-3-5-5--------0-0--------0h2-----0h2------|
D#|--------------------7-------7--8-----3-------3-3------------------------------------|




[Pre-Solo]


D#|---------------------------------------------------------------------------|
A#|---------------------------------------------------------------------------|
F#|---------------------------------------------------------------------------|
C#|----2--------------------------------------7-------------0------0----------|
G#|----2------------2-------------------------5---------0h2----0h2------------|
D#|----0-------------------------3--------------------------------------------|
  
D#|-----------------------------------------------------|
A#|-----------------------------------------------------|
F#|-----------------------------------------------------|
C#|----2--------------------------------------7---------|
G#|----2------------2-------------------------5---------|
D#|----0-------------------------3----------------------|




[Solo]

D#|--------------------------------------------------------------------------------|
A#|--------------5-7------5-7/9------7-9-10------9-10-12-12b14-12pb14r12p10--------|
F#|----------4h6------------------------------------------------------------11-----|
C#|----4h6h7-----------------------------------------------------------------------|
G#|--------------------------------------------------------------------------------|
D#|--------------------------------------------------------------------------------|

D#|---------------14-14------------17-17------------17-----19b21----|
A#|----17b19------------19b21------------20b22---------17-----------|
F#|-----------------------------------------------------------------|
C#|-----------------------------------------------------------------|
G#|-----------------------------------------------------------------|
D#|-----------------------------------------------------------------|

D#|----22-21----21-19----19-17----17-16h17p16p14-16-14h16p14\12-14-12h14p12----12----------------------|
A#|----------19-------17-------15-------------------------------------------15----15-14h15p14p12-14----|
F#|----------------------------------------------------------------------------------------------------|
C#|----------------------------------------------------------------------------------------------------|
G#|----------------------------------------------------------------------------------------------------|
D#|----------------------------------------------------------------------------------------------------|

D#|----------------------------------------------------------------------------------------|
A#|----12h14p12----12-------------14------------14------------14---------------------------|
F#|-------------14----14-11~---------13-13~--------14-14~--------16-16~-----16b18r16p14----|
C#|----------------------------------------------------------------------------------------|
G#|----------------------------------------------------------------------------------------|
D#|----------------------------------------------------------------------------------------|

D#|-------------------------------------------------------------------12----12~---12----12---|
A#|----17b19--------17-15-17-15b17-----15-14-15-14b15-----14-12----12----12----------12------|
F#|-------------------------------------------------------------14---------------------------|
C#|------------------------------------------------------------------------------------------|
G#|------------------------------------------------------------------------------------------|
D#|------------------------------------------------------------------------------------------|

D#|-------14----14~---14----14----14----14~---------15b17----14-12---------------------------------|
A#|----16----16----------16----15----15-------15-14----------------12b13r12-12b13r12-10------------|
F#|-------------------------------------------------------------------------------------9----------|
C#|---------------------------------------------------------------------------------------12\11----|
G#|------------------------------------------------------------------------------------------------|
D#|------------------------------------------------------------------------------------------------|




[Bridge 3]

D#|------------------------------------------------------------------------------------------------------|
A#|-------------12----------12----------12----------12---------10----------10----------14----14b16r14-12-|
F#|-------13----------13----------12----------12---------11----------11----------14----------------------|
C#|----------14----------14----------12----------12---------12----------12----------14-------------------|
G#|----------------14----------10----------10----------9----------12----------12----------12-------------|
D#|----12------------------------------------------------------------------------------------------------|

D#|---------------------------------------------------------------------------------|
A#|------------12----------12----------12----------12---------10----------10-14\----|
F#|------13----------13----------12----------12---------11----------11-------14\----|
C#|---------14----------14----------12----------12---------12----------12-----------|
G#|---------------14----------10----------10----------9----------12-----------------|
D#|---12----------------------------------------------------------------------------|

D#|----------------------|
A#|----------------------|
F#|----------------------|
C#|--------0--------0----|
G#|----0h2------0h2------|
D#|----------------------|




[Chorus 3]

D#|------------------------------------------------------------------------------------|
A#|----------------------------------------------------3-3-----------------------------|
F#|----------------------------------------------------2-2-2-2-------------------------|
C#|----9-9-9-9-----9-------9----------------5-5--------0-0-2-2------------0-------0----|x4
G#|----7-7-7-7-----7---9---7---9--10----5---3-3-5-5--------0-0--------0h2-----0h2------|
D#|--------------------7-------7--8-----3-------3-3------------------------------------|




[Outro]

D#|-----------------------------------------------------------------------------------------------|
A#|-----------------------------------------------------------------------------------------------|
F#|----9-9-9-9-9-9-9-9-11-11-11-11-11-11-11-11-12-12-12-12-12-12-12-12-14-14-14-14-14-14-14-14----|
C#|-----------------------------------------------------------------------------------------------|
G#|----7-7-7-7-7-7-7-7-9--9--9--9--9--9--9--9--10-10-10-10-10-10-10-10-12-12-12-12-12-12-12-12----|
D#|-----------------------------------------------------------------------------------------------|

D#|-------------------------------------------------------------------------------------------|
A#|-------------------------------------------------------------------------------------------|
F#|----16-16-16-16-16-16-16-16-18-18-18-18-18-18-18-18-19-19-19-19-19-19-19-19-21-21-21-21----|
C#|-------------------------------------------------------------------------------------------|
G#|----14-14-14-14-14-14-14-14-16-16-16-16-16-16-16-16-17-17-17-17-17-17-17-17-19-19-19-19----|
D#|-------------------------------------------------------------------------------------------|

D#|----------------------|
A#|----------------------|
F#|----------------------|
C#|--------0--------0----|
G#|----0h2------0h2------|
D#|----------------------|
            
Submit corrections


        No More Heroes lessons Hard to play? Try these video lessons and learn fast No More Heroes lessons
        
↑ Back to top | Tablatures and chords for acoustic guitar and electric guitar, ukulele, drums are parodies/interpretations of the original songs. You may use it for private study, scholarship, research or language learning purposes only