» » »

Slash - Dr Dan Tabs

Artists:  A B C D E F G H I J K L M N O P Q R S T U V W X Y Z # 

Dr Dan Tabs

(ver. 1) Click to play this song!
Slash
 Rating:
4.3/5 (6 votes)

 Dr Dan lessons Tabs too difficult? Try these video lessons and learn fast
 
                -------------------------------------------------------------------------------
                  Triple M's Dr Dan Commercial - Featuring Slash
-------------------------------------------------------------------------------

Tuning: Standard Tuning EADGBe

Hi all, this is my first Guitar tab, I'm pretty sure most of it is correct.
Anyways I've covered Slash's part in the song but there are another two guitars
Also to let you know this isn't the extended version of the song its the commercial one.
Really catchy though.

I split the song up into 3 sections.
Section 1

e|---------------------------------------------------11h14p11------11--12--|
B|----------------------------11--12--14--12--14b16~~----------14----------|
G|------11h13p11------11--13-----------------------------------------------|
D|--13------------13-------------------------------------------------------|
A|-------------------------------------------------------------------------|
E|-------------------------------------------------------------------------|

e|--14--14b16--14--14--12--12----------------------11h14p11------11--|
B|-----------------------------14--14--12--12--11------------14------|
G|-------------------------------------------------------------------|
D|-------------------------------------------------------------------|
A|-------------------------------------------------------------------|
E|-------------------------------------------------------------------|

e|--14/16--14--16b18--18br16--14--15b16--15b16--|
B|----------------------------------------------|
G|----------------------------------------------|
D|----------------------------------------------|
A|----------------------------------------------|
E|----------------------------------------------|

Section 2

e|---------------------------------------------------11h14p11------11--12--|
B|----------------------------11--12--14--12--16r15~~----------14----------|
G|------11h13p11------11--13-----------------------------------------------|
D|--13------------13-------------------------------------------------------|
A|-------------------------------------------------------------------------|
E|-------------------------------------------------------------------------|

e|--14--14b16--14--14--12--12---------------------------------------------|
B|-----------------------------14--14--11b12--11h12p11~~------11--12--14--|
G|------------------------------------------------------13----------------|
D|------------------------------------------------------------------------|
A|------------------------------------------------------------------------|
E|------------------------------------------------------------------------|

e|--11--14/16--14--16b18--18br16--14--15b16~~~~~~~~let it ring--17/19b21~--|
B|-------------------------------------------------------------------------|
G|-------------------------------------------------------------------------|
D|-------------------------------------------------------------------------|
A|-------------------------------------------------------------------------|
E|-------------------------------------------------------------------------|

Section 3
This part of the song is Played very fast. It was also very hard
to tab but its sounds something like this.

e|---------16h19p16--| This bit is repeated about 9 or 10 times
B|--19b21------------| Then he plays something on the thirteenth fret on
G|-------------------| the high e string then he ends it on 12th fret
D|-------------------| on the B string.
A|-------------------|
E|-------------------|

I hope this helped you :)



************************************

| /   slide up
| \   slide down
| h   hammer-on
| p   pull-off
| ~   vibrato
| +   harmonic
| x   Mute note
| b   Bend
| pb  Pre-bend
| br  Bend release
| pbr Pre-bend release
| brb Bend release bend

************************************
            
Submit corrections


        Dr Dan lessons Hard to play? Try these video lessons and learn fast Dr Dan lessons
        
↑ Back to top | Tablatures and chords for acoustic guitar and electric guitar, ukulele, drums are parodies/interpretations of the original songs. You may use it for private study, scholarship, research or language learning purposes only