» » »

Slash - By The Sword Tabs

Artists:  A B C D E F G H I J K L M N O P Q R S T U V W X Y Z # 

By The Sword Tabs

(ver. 1) Click to play this song!
Slash
 Rating:
4.3/5 (21 vote)

 By The Sword lessons Tabs too difficult? Try these video lessons and learn fast
 
                e|------------------------------|----------------------------|
B|------------------------------|----------------------------|
G|-------5---7b~~~~-----4h5-----|-------5---7b~~-----4h5-----|
D|-5h7----------------------3~~-|-5h7----------------------4-|
A|------------------------------|----------------------------|
E|------------------------------|----------------------------|

e|--------------------------------|----------------------------------------|
B|--------------------------------|-----------------------------------10~~-|
G|-------5---10b---10---10p9---10-|-10p9---7---9p7---5---7p5---4/5---------|
D|-5h7----------------------------|----------------------------------------|
A|--------------------------------|----------------------------------------|
E|--------------------------------|----------------------------------------|

e|---------------------------------------14~~~~----------|
B|-10---14b---14pbr---13~~~~---12~~~~-------------12~~~~-|
G|-------------------------------------------------------|
D|-------------------------------------------------------|
A|-------------------------------------------------------|
E|-------------------------------------------------------|

e|-----------17---13---12---13p12--------12-------------------------------------------------15b-|
B|-10---13--------------------------13--------13---12---13---12---13p12---10-----------10-------|
G|------------------------------------------------------------------------------9h12------------|
D|----------------------------------------------------------------------------------------------|
A|----------------------------------------------------------------------------------------------|
E|----------------------------------------------------------------------------------------------|

e|-15pb---15---12---10---10-----------------10----------|-9--------------------------------------------------|
B|-----------------------------13---10h13--------9---13-|------13---15b---15r---13---15b--15b--15b--15b--15b-|
G|------------------------------------------------------|----------------------------------------------------|
D|------------------------------------------------------|----------------------------------------------------|
A|------------------------------------------------------|----------------------------------------------------|
E|------------------------------------------------------|----------------------------------------------------|

e|-----------------------------------------------------------------------------------------------------15b-|
B|-15p13---15b---13---12---13---12---13p12---------------------13--------12h13---15---12h13---15---13------|
G|-------------------------------------------14--------12h14--------14-------------------------------------|
D|------------------------------------------------14-------------------------------------------------------|
A|---------------------------------------------------------------------------------------------------------|
E|---------------------------------------------------------------------------------------------------------|

e|-17---19---19b---19pb---17h19---19b---19pb---17---20b---20---17---15---17---17-|
B|-------------------------------------------------------------------------------|
G|-------------------------------------------------------------------------------|
D|-------------------------------------------------------------------------------|
A|-------------------------------------------------------------------------------|
E|-------------------------------------------------------------------------------|

e|-17-17-17---12------------------------------------15--------------|--------------------|
B|-----------------15---15---13---15b-(hold)-15pb-(hold)-15pb---15r-|---13h15------15b---|
G|------------------------------------------------------------------|--------------------|
D|------------------------------------------------------------------|--------------------|
A|------------------------------------------------------------------|--------------------|
E|------------------------------------------------------------------|--------------------|            
Submit corrections


        By The Sword lessons Hard to play? Try these video lessons and learn fast By The Sword lessons
        
↑ Back to top | Tablatures and chords for acoustic guitar and electric guitar, ukulele, drums are parodies/interpretations of the original songs. You may use it for private study, scholarship, research or language learning purposes only