» » »

Slash - Bent To Fly Tabs

Artists:  A B C D E F G H I J K L M N O P Q R S T U V W X Y Z # 

Bent To Fly Tabs

(ver. 1) Click to play this song!
Slash
 Rating:
4/5 (4 votes)

 Bent To Fly  lessons Tabs too difficult? Try these video lessons and learn fast
 
                      E  E  E  E  E  E  E  E     E  E  E  E  E  E  E  E   
D#||-----------1--------------|--------------------------|
A#||--------3-----3-----------|--3-----------------------|
F#||-----2-----------2-----2--|-----2-----2--------0-----|
C#||--0-----------------0-----|--------0--------0-----0--|
G#||--------------------------|--------------3-----------|
D#||--------------------------|--------------------------|


  E  E  E  E  E  E  E  E     E  E  E  E  E  E  E  E   
--------------------------|-----------------------0--|
-----------3--------------|--------------------1-----|
--------0-----0-----------|-----0-----------2--------|
-----0-----------0--------|--0-----------3-----------|
--2--------------------2--|-----------3--------------|
--------------------3-----|--------1-----------------|


  E  E  E  E  E  E  E  E     E  E  E  E  E  E  E  E   
-----------1--------------|--------------------------|
--------3-----3-----------|--3-----------------------|
-----2-----------2-----2--|-----2-----2--------0-----|
--0-----------------0-----|--------0--------0-----0--|
--------------------------|--------------3-----------|
--------------------------|--------------------------|


  E  E  E  E  E  E  E  E     E  E  E  E  E  E  E  E   
--------------------------|-----------------------0--|
-----------3--------------|--------------------1-----|
--------0-----0-----------|-----0-----------2--------|
-----0-----------0--------|--0-----------3-----------|
--2--------------------2--|-----------3--------------|
--------------------3-----|--------1-----------------|


  E  E  E  E  E  E  E  E     E  E  E  E  E  E  E  E   
-----------1--------------|--------------------------|
--------3-----3-----------|--3-----------------------|
-----2-----------2-----2--|-----2-----2--------0-----|
--0-----------------0-----|--------0--------0-----0--|
--------------------------|--------------3-----------|
--------------------------|--------------------------|


  E  E  E  E  E  E  E  E     E  E  E  E  E  E  E  E   
--------------------------|-----------------------0--|
-----------3--------------|--------------------1-----|
--------0-----0-----------|-----0-----------2--------|
-----0-----------0--------|--0-----------3-----------|
--2--------------------2--|-----------3--------------|
--------------------3-----|--------1-----------------|


  E  E  E  E  E  E  E  E     E  E  E  E  E  E  E  E   
-----------1--------------|--------------------------|
--------3-----3-----------|--3-----------------------|
-----2-----------2-----2--|-----2-----2--------0-----|
--0-----------------0-----|--------0--------0-----0--|
--------------------------|--------------3-----------|
--------------------------|--------------------------|


  E  E  E  E  E  E  E  E     E  E  E  E  E  E  E  E    
--------------------------|-----------------------0--||
-----------3--------------|--------------------1-----||
--------0-----0-----------|-----0-----------2--------||
-----0-----------0--------|--0-----------3-----------||
--2--------------------2--|-----------3--------------||
--------------------3-----|--------1-----------------||            
Submit corrections


        Bent To Fly  lessons Hard to play? Try these video lessons and learn fast Bent To Fly  lessons
        
↑ Back to top | Tablatures and chords for acoustic guitar and electric guitar, ukulele, drums are parodies/interpretations of the original songs. You may use it for private study, scholarship, research or language learning purposes only