» » »

Slash - Automatic Overdrive Tabs

Artists:  A B C D E F G H I J K L M N O P Q R S T U V W X Y Z # 

Automatic Overdrive Tabs

(ver. 1) Click to play this song!
Slash
 Rating:
4/5 (4 votes)

 Automatic Overdrive  lessons Tabs too difficult? Try these video lessons and learn fast
 
                Standard - eBGDAE

  F#M   G    E    A    A G# F#M   G    E    E E E    E E E    E E E    E E E    E E E
e--2----3----0----5----5--4--2----3----0----0-0-0----0-0-0----0-0-0----0-0-0----0-0-0-|
B--2----3----0----5----5--4--2----3----0----0-0-0----0-0-0----0-0-0----0-0-0----0-0-0-|
G--2----4----1----6----6--5--2----4----1----1-1-1----1-1-1----1-1-1----1-1-1----1-1-1-|
D--4----5----2----7----7--6--4----5----2----2-2-2----2-2-2----2-2-2----2-2-2----2-2-2-|
A--4----5----2----7----7--6--4----5----2----2-2-2----2-2-2----2-2-2----2-2-2----2-2-2-|
E--2----3----0----5----5--4--2----3----0----0-0-0----0-0-0----0-0-0----0-0-0----0-0-0-|

   A               G                                 A      *
e-------------------------------------------------------------------|
B-------------------------------------------------------------------|
G--2----2--5/4p2p0-0----0--4p2p0-----------0---------2------2-------| x4
D--2--2------------0--0----------0--4-0-4----4p0-----2-x----2-------| .
A--0---------------x-----------------------------3b--0-x----0-------|
E------------------3-----------------------------------x-3b---3-----|b

            
Submit corrections


        Automatic Overdrive  lessons Hard to play? Try these video lessons and learn fast Automatic Overdrive  lessons
        
↑ Back to top | Tablatures and chords for acoustic guitar and electric guitar, ukulele, drums are parodies/interpretations of the original songs. You may use it for private study, scholarship, research or language learning purposes only