» » »

Slapshock - Sgt. Trigger Tabs

Artists:  A B C D E F G H I J K L M N O P Q R S T U V W X Y Z # 

Sgt. Trigger Tabs

(ver. 1) Click to play this song!
Slapshock
 Rating:
4/5 (4 votes)

 Sgt. Trigger lessons Tabs too difficult? Try these video lessons and learn fast
 
                Intro:
                                                       10x  
   e------------------------------------------------|
   B-------------8^---------------8^--8^--8^--8^----|   
   G------------11^--------------11^-11^-11^-11^----|
   D------------------------------------------------|
   A-----0-0--0---------0-0--0pm--------------------|
   D-----0-0--0---------0-0--0pm--------------------|

   e------------------------------------------------|
   B------------------------------------------------|
   G------------------------------------------------|
   D--0-3-0-3-5-3-------0-3-0-3-3/7-----------------|
   A--0-3-0-3-5-3-------0-3-0-3-3/7-----------------|
   D--0-3-0-3-5-3-------0-3-0-3-3/7-----------------|

   
Verse:
   
   e-----------------------------------------------------------------|
   B--------15b--13b---------15b--13b---------15b--13b--18--15--13---|
   G--12b--------------12b--------------12b--------------------------|
   D-----------------------------------------------------------------|
   A-----------------------------------------------------------------|
   D-----------------------------------------------------------------|

   
   
  
   D---------------------------------------------------------------------|
   B--------15b--13b---------15b--13b---------15b--13b--18--15--13--15b--|
   G--12b--------------12b--------------12b------------------------------|
   D---------------------------------------------------------------------|
   A---------------------------------------------------------------------|
   D---------------------------------------------------------------------|


   e----------------------------------------------|
   B----------------------------------------------|     just listen very carefuly
   G----------------------------------------------|   coz some of this is very tickky
   D--0-3-0-3-0-0----3-3/5------------------------|
   A--0-3-0-3-0-0----3-3/5------------------------|
   D--0-3-0-3-0-0----3-3/5------------------------|

   e--------------------------------------|
   B--------------------------------------|
   G--------------------------------------|
   D--0-3-0-0----3-3h5-3------------------|
   A--0-3-0-0----3-3h5-3------------------|
   D--0-3-0-0----3-3h5-3------------------|
   
   

ENDING:

   e-----------------------------------------|
   B-----------------------------------------|
   G-----------------------------------------|
   D--0--0--0--0-----------------------------|
   A--0--0--0--0-----------------------------|
   D--0--0--0--0-----------------------------|
            
Submit corrections


        Sgt. Trigger lessons Hard to play? Try these video lessons and learn fast Sgt. Trigger lessons
        
↑ Back to top | Tablatures and chords for acoustic guitar and electric guitar, ukulele, drums are parodies/interpretations of the original songs. You may use it for private study, scholarship, research or language learning purposes only