Home » S » Slapshock »

Slapshock - Carinio Brutal Bass

Artists:  A B C D E F G H I J K L M N O P Q R S T U V W X Y Z # 

Carinio Brutal Bass

(ver. 1) Click to play this song!
Slapshock
Carino Brutal – Slapshock
Bass tab
Tuning: Drop C

Submitted by jilmark factor
09122116056/09489225539


intro
|---------------------------------------------------------|
|--------------------------------------7h8p7--------------|
|---------6---------8/6---------6----8-------8-8h9p8-3s5--|
|-0~-0000---0~-0000-----0~-0000---0~----------------------|2x


Pre-Verse;
|-------------------------------------------------------|
|-------------------------------------------------------|
|------------------------------------1h3p1h3-3h5p3h5----|
|--0-0-0-0-0-0-0-0-0-0-0-0--3h5p3h5---------------------|

|------------------------------------------------------------------|
|------------------------------------------------------------------|
|-----6-5----8-5----5--6----3s5----6-5-------------1h3p1h3-3h5p3h5-|
|-0000---0000---0000-00-0000---0000---0000-3h5p3h5-----------------|2x
  

Verse;
|----------------------------------------------------------------------|
|----------------------------------------------------------------------|
|----------------------------------------------------------------------|
|--8888888888888-1010101010--888888888888-1010101010----00000000000000-|2x
                                                   
|----------------------------------------------------------------------|
|----------------------------------------------------------------------|
|----------------------------------------------------------------------|
|--8888888888888-1010101010--888888888888-1010101010----0~-------------|

Pre-Chorus;
|---------------|
|---------------|
|---5----5----5-|
|-0---00---00---|
  
Chorus;
|------------------------------------------------------------------------|
|------------------------------------------------------------------------|
|-----------33\5-----------33\5----------9/7\9--------------12-11-9-9/11-|
|-000000000-----000000000------88888888-------101010101010---------------|

(repeat verse)
(repeat pre-chorus)
(repeat chorus 2x)


Bridge;
|-------------------------------------------------------|
|-------------------------------------------------------|
|-------------------------------------------------------|
|--8888888888888-1010101010--888888888888-1010101010----|


Solo;
|----------------------------------------------------------------------|
|----------------------------------------------------------------------|
|----------------------------------------------------------------------|
|--1211212121212--10101010--888888888888-10101010101010----------------|

Pre-Verse;
|-------------------------------------------------------|
|-------------------------------------------------------|
|------------------------------------1h3p1h3-3h5p3h5----|
|--0-0-0-0-0-0-0-0-0-0-0-0--3h5p3h5---------------------|

|------------------------------------------------------------------|
|------------------------------------------------------------------|
|-----6-5----8-5----5--6----3s5----6-5-------------1h3p1h3-3h5p3h5-|
|-0000---0000---0000-00-0000---0000---0000-3h5p3h5-----------------|2x

(repeat chorus 2x)

coda;
|--------------------------------|
|--------------------------------|
|--------------------------------|
|-00-0h1-00-0h1-00-0h1-111111111-|

|--------------------------------|
|--------------------------------|
|--------------------------------|
|-00-0h1-00-0h1-00-0h1-12\-------|

|--------------------------------|
|--------------------------------|
|--------------------------------|
|-00-0h1-00-0h1-00-0h1-111111111-|

|--------------------------------|
|--------------------------------|
|--------------------------------|
|-00-0h1-00-0h1-00-0h1-111111111-|

-END ..


may nagrequest sakin nito kaya ginawa ko.
rate/like nyo kung maganda ung pakagawa ng tab ko.

text nyo lang ako kung may mga request pa kau.
salamat. .l..l

eto pala ung banda ko. 
eight o'clock band.
rock-emo-metal genre namin.
nandito mga vids namin.

rate/like nyo din sa may mga gusto. haha

keep on rocking mga pogi.
bigay nyo malupet na slam saka headbang nyo.
tnx
.l..l
            
Submit corrections

↑ Back to top | Tablatures and chords for acoustic guitar and electric guitar, ukulele, drums are parodies/interpretations of the original songs. You may use it for private study, scholarship, research or language learning purposes only