» » »

Slapshock - Satellite Kid Tabs

Artists:  A B C D E F G H I J K L M N O P Q R S T U V W X Y Z # 

Satellite Kid Tabs

(ver. 1) Click to play this song!
Slapshock
 Rating:
4/5 (4 votes)

 Satellite Kid lessons Tabs too difficult? Try these video lessons and learn fast
 
                SATELLITE KID
Slapshock
Project 11-41
Tuning: D C G F A D (whole step down)

Intro
  (4x)
D|------0----------------------0--------0-------0---| 
A|----0----0--------3----3---0----0---0-------0-----|
F|----------------4----2----------------------------|
C|--2-------2-2/5----5----2--------2----------------|
G|----------------------------------3-----3/5-------|
D|--------------------------------------------------|

  (2x)
D|------------------------------------------------------|  |---------------|
A|------------------------------------------------------|  |---------------|
F|------------------------------------------------------|  |---------------|
C|--22-22---2222-2-2-2---5555--22-22---2222-2-2-2---55--|  |--55-5-55------|
G|--22-22---2222-2-2-2---5555--22-22---2222-2-2-2---55--|  |--55-5-55------|
D|--00-00---0000-0-0-0---3333--00-00---0000-0-0-0---33--|  |--33-3-33------|


Verse I
  (4x)
D|-------------------------|  |---------------|
A|-------------------------|  |---------------|
F|-------------------------|  |---------------|
C|--22-22---2222-2-2-2-----|  |--999-9-9------|
G|--22-22---2222-2-2-2-----|  |--999-9-9------|
D|--00-00---0000-0-0-0-----|  |--777-7-8------|
 
   (4x)
D|-----------------------------------|
A|-----------------------------------|
F|-----------------------------------|
C|--22-22---2222-2-2-2-999-9-10------|
G|--22-22---2222-2-2-2-999-9-10------|
D|--00-00---0000-0-0-0-777-7-8-------|

Pre- Chorus

D|---------------------------------------------------------------------|
A|---------------------------------------------------------------------|
F|---------------------------------------------------------------------|
C|--2-—222--—5-7-5-2--222---5-7-5-5-7-5-2--222---5-7-5-2--222---5-7-5--|
G|--2--222---5-7-5-2-—222---5-7-5-5-7-5-2--222---5-7-5-2--222---5-7-5--|
D|--0--000—--3-5-3-0-—000---3-5-3-3-5-3-0--000---3-5-3-0--000---3-5-3--|


Chorus
   (2x)
D|---------------------------------------------------------------|
A|---------------------------------------------------------------|
F|--9-xxx9-xxx9-xx12-xxx11-xxx12-xx9-xxx9-xxx9-xx5-xxx7-xxx7-xx--|
C|--9-xxx9-xxx9-xx12-xxx11-xxx12-xx9-xxx9-xxx9-xx5-xxx7-xxx7-xx--|
G|--7-xxx7-xxx7-xx10-xxx9--xxx10-xx7-xxx7-xxx7-xx3-xxx5-xxx5-xx--|
D|----000--000--00---000---000---00--000--000--00--000--000--00--|


D|----------------------------------------------------------| 
A|----------------------------------------------------------|
F|----------------------------------------------------------|  
C|--22-22---2222-2-2-2---5555--22-22---2222-2-2-2--55-5-55--|
G|--22-22---2222-2-2-2---5555--22-22---2222-2-2-2--55-5-55--|
D|--00-00---0000-0-0-0---3333--00-00---0000-0-0-0—-33-3-33--|


Verse II
   (4x)
D|-------------------------|  |---------------|
A|-------------------------|  |---------------|
F|-------------------------|  |---------------|
C|--22-22---2222-2-2-2-----|  |--999-9-9------|
G|--22-22---2222-2-2-2-----|  |--999-9-9------|
D|--00-00---0000-0-0-0-----|  |--777-7-8------|

   (4x)
D|-----------------------------------|
A|-----------------------------------|
F|-----------------------------------|
C|--22-22---2222-2-2-2-999-9-10------|
G|--22-22---2222-2-2-2-999-9-10------|
D|--00-00---0000-0-0-0-777-7-8-------|

Pre-Chorus

Chorus 2x

Bridge

  (2x)
D|------5----------------|
A|--5---5------5---5/6---|
F|----4----------4-------|
C|-----------------------|
G|-----------------------|
D|-----------------------|
         ...sus    ...sus
D|--------------------------------------|
A|--------------------------------------|
F|--------------------------------------|
C|--3-3-3-2----3--3-2----3-3--3-2----3--|
G|--3-3-3-2----3--3-2----3-3--3-2----3--|
D|--1-1-1-0----1--1-0----1-1--1-0----1--|

  (8x)
D|------------------|
A|------------------|
F|------------------|
C|--2--2-5-22-2-25--|
G|--2--2-5-22-2-25--|
D|--0--0-3-00-0-03--|

Chorus 2x

Outro

D|-------------------|
A|-------------------|
F|-------------------|
C|--2--5-7---222222--|
G|--2--5-7---222222--|
D|--0--3-5---000000--|
   <<<6x>>>

Legend
x = mute
/ = slide up
sus = sustain
            
Submit corrections


        Satellite Kid lessons Hard to play? Try these video lessons and learn fast Satellite Kid lessons
        
↑ Back to top | Tablatures and chords for acoustic guitar and electric guitar, ukulele, drums are parodies/interpretations of the original songs. You may use it for private study, scholarship, research or language learning purposes only