Home » S » Slapshock »

Slapshock - Push Me Tabs

Artists:  A B C D E F G H I J K L M N O P Q R S T U V W X Y Z # 

Push Me Tabs

(ver. 3) Click to play this song!
Slapshock

Tuning: Dropped d tuning DADGBE
note: Slapshock's tuning is whole step down 
DGCFAD. I only use drop d in order to make the 
song easy to play.

LEGEND:

/ or \   - slide up or down
p        - pull off
h	 - hammer on
p.m. --- - palm mute
b        - bend

Intro:
E ---------------------------------------------
B ---------------------------------------------
G ---------------------------------------------
D --1p0----1p0-1p0----1p0-1p0----1p0-1p0-----1-(4x)
A ---------------------------------------------
D ------0-0--------0-0--------0-0---------0-0--
p.m.    - -        - -        - -         - -

E -----------------------
B -----------------------
G -----------------------
D --0000-1111-5555-7777--
A -----------------------
D -----------------------

E ---------  ---------
B ---------  ---------
G ---------  ---------
D --0-0-0--4x--1-1-1--4x (4x)
A --0-0-0--  --1-1-1--
D --0-0-0--  --1-1-1--
p.m.- -        - -

Verse:
E --------------
B --------------
G --------------
D --7****8****--
A --5****6****--
D --------------
toggle on/off

E ---------------
B ---------------
G ---------------
D --0-0-0-1-1-1--4x 
A --0-0-0-1-1-1--
D --0-0-0-1-1-1--
p.m.- -   - -

Pre-chorus:
E -------------------------------
B -------------------------------
G --7777-8888-12121212-14141414--(2x)
D -------------------------------
A --5555-6666-10101010-12121212--
D -------------------------------

Chorus:
E -----------------------------------------
B -----------------------------------------
G -----------------------------------------
D --1p0---1p0-1p0---1p0-1p0---1p0-1p0----1-(4x)
A ------0---------0---------0---------0-0--
D ------0---------0---------0---------0-0--
p.m.                                  - -

Verse2: do verse 1 riff
(rep. pre-chorus&chorus)

Interlude:
E ---------20--------------------------------------20----------
B -------------------------------------------------------------
G -----------14141414\-7-8-12-14-15-14---------------14141414\-
D -------------------------------------------------------------
A -0-0-1-0-------------5-6-10-12-13-12-1-0--0-0-1-0------------               
D -0-0-1-0-----------------------------1-0--0-0-1-0------------

--------------------------------------------20--------------------------
----7-8-12-14-15-14---------------------------14141414\-7-8-12-14-15-14-
----5-6-10-12-13-12-0-0-1-0--0--0--0-0-0-1-0------------5-6-10-12-13-12-
--------------------0-0-1-0--0--0--0-0-0-1-0----------------------------

E ----------------
B --3~~~~--4~~~~--
G --2~~~~--3~~~~--
D --0~~~~--1~~~~--(4x)
A --0~~~~--1~~~~--
D --0~~~~--1~~~~--

E ------------------
B ------------------
G ------------------(4x)
D ------------------
A --5-6-10-12-13-12-
D ------------------

E --------------------
B --------------------
G --6--8-12-14-15-14--(4x)
D --------------------
A --5--6-10-12-13-12--
D --------------------
(rep.chorus)

Breakdown:
E -----------------------------------------------------
B -----------------------------------------------------
G -----------------------------------------------------
D --1p0-0--1p0-1p0--0--1p0-1p0--0--1p0-1p0--0-0-1-1-0--
A --1p0-0--1p0-1p0--0--1p0-1p0--0--1p0-1p0--0-0-1-1-0--
D --1p0-0--1p0-1p0--0--1p0-1p0--0--1p0-1p0--0-0-1-1-0--
p.m.                                        - -

_end_
            
Submit corrections

↑ Back to top | Tablatures and chords for acoustic guitar and electric guitar, ukulele, drums are parodies/interpretations of the original songs. You may use it for private study, scholarship, research or language learning purposes only