Home » S » Slade »

Slade - Mama Weer All Crazee Now Tabs

Artists:  A B C D E F G H I J K L M N O P Q R S T U V W X Y Z # 

Mama Weer All Crazee Now Tabs

(ver. 1) Click to play this song!
Slade
 Rating:
4.3/5 (15 votes)
                [Intro]

e|---------------------------------------------------------------------------|
B|---------------------------------------------------------------------------|
G|---------------------------------------------------------------------------|
D|-5--7--5-5-7--3---3-5---3--3--3--5--3--------------------------------------| Rhythm
A|-3--3--3-3-3--1---1-1---1--1--1--1--1--------------------------------------|
E|---------------------------------------------------------------------------|

e|---------------------------------------------------------------------------|
B|-5--6--5-------------------------------------------------------------------|
G|-5--5--5-------------------------------------------------------------------|
D|-5--7--5----5--------------------------------------------------------------| Lead
A|---------/7---8---8-10--8--8--8--10-8--------------------------------------|
E|--------------6---6-6---6--6--6--6--6--------------------------------------|

They play this 3 times over but on the 4th time they end it early, as shown.

e|---------------------------------------------------------------------------|
B|---------------------------------------------------------------------------|
G|---------------------------------------------------------------------------|
D|-5--7--5-5-7--3------------------------------------------------------------| Rhythm
A|-3--3--3-3-3--1------------------------------------------------------------|
E|---------------------------------------------------------------------------|

e|---------------------------------------------------------------------------|
B|-5--6--5-------------------------------------------------------------------|
G|-5--5--5-------------------------------------------------------------------|
D|-5--7--5----5--------------------------------------------------------------| Lead
A|---------/7---8------------------------------------------------------------|
E|--------------6------------------------------------------------------------|


[Verse]

Both guitars play this same part 4 times over.

e|---------------------------------------------------------------------------|
B|---------------------------------------------------------------------------|
G|---------------------------------------------------------------------------|
D|-5--7--5-5-7---------------------------------------------------------------|
A|-3--3--3-3-3--3--3-5-3-3-3-5-3---------------------------------------------|
E|--------------1--1-1-1-1-1-1-1---------------------------------------------|

They then branch off into their own respective parts.

e|---------------------------------------------------------------------------|
B|---------------------------------------------------------------------------|
G|---------------------------------------------------------------------------|
D|------------------3---3--5--3--3--3--5--3----------------------------------| Rhythm
A|-3---5---3--3--5--1---1--1--1--1--1--1--1----------------------------------|
E|-1---1---1--1--1-----------------------------------------------------------|

e|-----1--1------------------------------------------------------------------|
B|-----1--1--------------6~--------------------------------------------------|
G|--------------------/7-----------------------------------------------------|
D|---------------------------------------------------------------------------| Lead
A|---------------------------------------------------------------------------|
E|---------------------------------------------------------------------------|

The above section is played 3 times, followed by one play through the below section

e|---------------------------------------------------------------------------|
B|---------------------------------------------------------------------------|
G|---------------------------------------------------------------------------|
D|-3/5--7--5-5-7--5--5-7-5-5-5-7-5-------------------------------------------| Rhythm
A|-1/3--3--3-3-3--3--3-3-3-3-3-3-3-------------------------------------------|
E|---------------------------------------------------------------------------|

e|-----8----8--------------8----8--------------------------------------------|
B|-/10---10---10-8-8~--/10---10---10-8---------------------------------------|
G|---------------------------------------------------------------------------|
D|---------------------------------------------------------------------------| Lead
A|---------------------------------------------------------------------------|
E|---------------------------------------------------------------------------|


[Chorus]

e|---------------------------------------------------------------------------|
B|---------------------------------------------------------------------------|
G|---------------5-----------------------------------------------------------|
D|-5------3------5-----------------------------------------------------------| Rhythm
A|-5------3------3-----------------------------------------------------------|
E|-3------1------------------------------------------------------------------|

e|---------------------------------------------------------------------------|
B|---------------5--6-6--5--5--6--6-5----------------------------------------|
G|-4------2------5--5-5--5--5--5--5-5----------------------------------------|
D|-5------3------5--7-7--5--5--7--7-5----------------------------------------| Lead
A|-5------3------------------------------------------------------------------|
E|-3------1------------------------------------------------------------------|

This is repeated twice, followed by this

e|---------------------------------------------------------------------------|
B|---------------------------------------------------------------------------|
G|------------------------------------------------------------3--------------|
D|-5------3------5--7--5--5-7--3--3-5-3-3-3-5-3-5--7--5--5-7--3--------------| Rhythm
A|-5------3------3--3--3--3-3--1--1-1-1-1-1-1-1-3--3--3--3-3--1--------------|
E|-3------1------------------------------------------------------------------|

e|---------------------------------------------------------------------------|
B|---------------5--6--5-------------------------5--6--5---------------------|
G|-4------2------5--5--5-------------------------5--5--5---------------------|
D|-5------3------5--7--5----5--------------------5--7--5---5-----------------| Lead
A|-5------3---------------/7---8-8-10-8-8-8-10-8---------/7--8---------------|
E|-3------1--------------------6-6-6--6-6-6-6--6-------------6---------------|

In the second chorus, the chorus is slightly extended with the lead playing the following short lick.

e|---------------------------------------------------------------------------|
B|---------------------------------------------------------------------------|
G|-7pb9pbr7p5---7-5~---------------------------------------------------------|
D|------------7--------------------------------------------------------------|
A|---------------------------------------------------------------------------|
E|---------------------------------------------------------------------------|

            
Submit corrections

↑ Back to top | Tablatures and chords for acoustic guitar and electric guitar, ukulele, drums are parodies/interpretations of the original songs. You may use it for private study, scholarship, research or language learning purposes only