Home » S » Skyclad »

Skyclad - It Wasnt Meant To End Tabs

Artists:  A B C D E F G H I J K L M N O P Q R S T U V W X Y Z # 

It Wasnt Meant To End Tabs

(ver. 2) Click to play this song!
Skyclad
 Rating:
4/5 (4 votes)
                S K Y C L A D

			It wasn't meant to end this way
				   (intro)


			Typed by Colin Lewis


	This is an excellent piece from the JONAH'S ARK album on Noise records.
For those of you who don't know this is their 4th album, and they have since
released two more.
	I know this is only partial, but i think that it is so cool that i had
to TAB it up. The music was actually written by the bass player who is
classically trained.

NOTE:	Play with fingers on an acoustic for most record like sound.


||--0--2--3----------------------0--2--3--5--7--8--7--5--7---||
||*---------------------------------------------------------*||
||--------------5--4--2--4----4------------------------------||
||-----------------------------------------------------------||
||*-------------0-------------------------------0-----------*||
||--0-------------------------0------------------------------||

||--0--3--5--7--0--3--5--7--8--7---------||
||*-------------------------------8--5--*||
||---------------------------------------||
||---------------------------------------||
||*-------------------0-----------------*||
||--0------------------------------------||

|----------------------------------------------------|
|-5--7--5--3--0--------------------------------------|
|----------------5--4--2--0--2-----------------------|
|-------------------------------5--4--2--0--2--4--2--|
|----------------0-----------------------------------|
|-0-----------------------------0--------------------|
            
Submit corrections

↑ Back to top | Tablatures and chords for acoustic guitar and electric guitar, ukulele, drums are parodies/interpretations of the original songs. You may use it for private study, scholarship, research or language learning purposes only