» » »

Skindred - Kiss & Make Up Tabs

Artists:  A B C D E F G H I J K L M N O P Q R S T U V W X Y Z # 

Kiss & Make Up Tabs

(ver. 2) Click to play this song!
Skindred
 Rating:
4/5 (4 votes)

 Kiss & Make Up lessons Tabs too difficult? Try these video lessons and learn fast
 
                This is the for Kiss and Make up from Skindred.
Tuning drop C.

Note:This is not my tab, i just founded and uploaded.

::MAIN::

|----------------------------|------------------------------------|
|----------------------------|------------------------------------|
|----------------------------|------------------------------------|
|-7-10-7--7-8-0--0-10--8--11-|-7-10-7--7-8-0--10-10--10-8--11-11--|
|-7-10-7--7-8-0--0-10--8--11-|-7-10-7--7-8-0--10-10--10-8--11-11--|
|-7-10-7--7-8-0--0-10--8--11-|-7-10-7--7-8-0--10-10--10-8--11-11--|


::VERSE::

Part 1

Guitar effects


Part 2
                x3

|----------------|---------------------|
|----------------|---------------------|
|----------------|---------------------|
|----------------|---------------------|
|----------------|---------------------|
|-7-5-0-7-5-0----|-7-5-0-7-5-0---10-10-|
pm. . . . . .      . . . . . .

Part 3
                   x3

|-----------------14-|---------------------|
|--------------------|---------------------|
|--------------------|---------------------|
|--------------------|---------------------|
|--------------------|---------------------|
|-7-5-0-7-5-0--------|-7-5-0-7-5-0---10-10-|

Think palm mute might be released in this one but can't tell.

::CHORUS::

Not sure about this.

|-------------------------------------------|
|-------------------------------------------|
|-7-10-10-10-7-10-7---12-12-12--10-12-12-12-|
|-------------------------------------------|
|-5-8--8--8--5-8--5---10-10-10--8--10-10-10-|
|-------------------------------------------|

Probably wrong but it sounds cool


Back to Verse riff

::VERSE::

 Play Part 3 then...


Part 4

|-------------------------|
|-------------------------|
|-5-7-5-0-5-7-5-0-5-7-5~--|


 Back to Chorus
 Breakdown then Main riff

::BRIDGE::

Clean strumming then into..

Heavy riff

|------------|
|------------|
|------------|
|-3-3-0-4-4--|
|-3-3-0-4-4--|
|-3-3-0-4-4--|

 Chorus


::OUTRO::


|-7-9--7-10-7-8---5--|-7-9--7-10-8-5--7-5-7-0--|
|-7-9--7-10-7-8---5--|-7-9--7-10-8-5--7-5-7-0--|
|-7-9--7-10-7-8---5--|-7-9--7-10-8-5--7-5-7-0--|

|-7-9--7-10-7-8---5--|-7-9--7-10-8-5--7-5-7-8~--|
|-7-9--7-10-7-8---5--|-7-9--7-10-8-5--7-5-7-8~--|
|-7-9--7-10-7-8---5--|-7-9--7-10-8-5--7-5-7-8~--|


Again, any corrections would appreciated.
            
Submit corrections


        Kiss & Make Up lessons Hard to play? Try these video lessons and learn fast Kiss & Make Up lessons
        
↑ Back to top | Tablatures and chords for acoustic guitar and electric guitar, ukulele, drums are parodies/interpretations of the original songs. You may use it for private study, scholarship, research or language learning purposes only