Home » S » Sitti »

Sitti - Tattooed On My Mind Tabs

Artists:  A B C D E F G H I J K L M N O P Q R S T U V W X Y Z # 

Tattooed On My Mind Tabs

(ver. 1) Click to play this song!
Sitti
(Intro)

pasenya na e2 lng nkayanan ko..
pki rate 
at commentaryo..hehehehe

la lng e2 lng nalagay ko..



Intro:

guitar 2;

e-----------------------------------------------------|
b------6h8s10--8s6--5h6-------------------------------|
g--6h8-------------------5s7--5h7s9-9-9--5-10-9-5/3---|
d-----------------------------------------------------|
a-----------------------------------------------------|
e-----------------------------------------------------|

e-----------------------------------------------------|
b------------------------------6h8s10--8s6--8h10------|
g--5s7--5h7s9-9-9--5-10h12-10-------------------------|
d-----------------------------------------------------|
a-----------------------------------------------------|
e-----------------------------------------------------|


-tnx-
invader..
            
Submit corrections

↑ Back to top | Tablatures and chords for acoustic guitar and electric guitar, ukulele, drums are parodies/interpretations of the original songs. You may use it for private study, scholarship, research or language learning purposes only