» » »

Simpsons - Simpsons Tabs

Artists:  A B C D E F G H I J K L M N O P Q R S T U V W X Y Z # 

Simpsons Tabs

(ver. 1) Click to play this song!
Simpsons
 Rating:
4/5 (4 votes)

 Simpsons lessons Tabs too difficult? Try these video lessons and learn fast
 
                its my first tab so gimmi a break, pleaz rate it.

1. ---0-2-5-3-0------------------------
2. -1-----------1----------------------
3. ---------------2-----------------3--
4. -----------------3-3-3-4-3-3-3-4----
5. ------------------------------------
6. ------------------------------------



1. ---0-2-5-3-0-------------------------
2. -1-----------1-----------------------
3. ---------------2---------------------
4. -----------------3-3-3-4-3-3-3-4-----
5. -------------------------------------
6. -------------------------------------



1. -------------------------------------
2. -------------------------------------
3. -3-0-0-0-0---------------------------
4. -------------------------------------
5. -------------------------------------
6. -------------------------------------
            
Submit corrections


        Simpsons lessons Hard to play? Try these video lessons and learn fast Simpsons lessons
        
↑ Back to top | Tablatures and chords for acoustic guitar and electric guitar, ukulele, drums are parodies/interpretations of the original songs. You may use it for private study, scholarship, research or language learning purposes only