» » »

Simpsons - Simpsons Tabs

Artists:  A B C D E F G H I J K L M N O P Q R S T U V W X Y Z # 

Simpsons Tabs

(ver. 2) Click to play this song!
Simpsons
 Rating:
4/5 (4 votes)

 Simpsons lessons Tabs too difficult? Try these video lessons and learn fast
 
                Please support mxtabs by visiting our advertisers  
 
Mxtabs / Guitar Tabs / I / Theme Songs / The Simpsons           Rating :         
 
 Printable Version | Remove This Tab | Read Corrections | Correct This Tab   Rate This Tab:  5.0 4.0 3.0 2.0 1.0      
 
 Buy The Official Sheet Music 

             The Simpson\'s theme 


THIS IS NOT MY ORIGINAL WORK. obviously. I take no credit for anything, 
im just helping Trent with his tab request

Standart tunning



  (bass figure) 4x    D/C 
|--------------------------------||---------------------------------------------| 
|--------------------------------||---------------------------------------------| 
|--------------------------------||-------2-0------------------------------------| 
|--------------------------------||---2-4---- 2---------------------------------| 
|-333------------333-------------||-3-----------3----------------------------1--| 
|--------2------------2---2------||---------------5-----2-2-2-3------2-2-2-3----| 


  B fast lick (64th notes?) 
|------------------------------|------------------------------------------------| 
|------------------------------|-----------------------------9-10-9-10-12-------| 
|------------------------------|----------8----8-10-11-10-11--------------------| 
|------------------------------|-9-8-9-11---11----------------------------------| 
|-222------------222-----------|------------------------------------------------| 
|--------2------------2---2----|------------------------------------------------| 


 (still the fast ones)    the lick again 
|-13-11-------11----------------------------------|-----------------------------| 
|-------14-12----14-12-10-14-12-10----12-10-------|-------4-2-------------------| 
|----------------------------------12-------12-10-|-----------4-2---------------| 
|-------------------------------------------------|---1-3---------3-------------| 
|-------------------------------------------------|-2---------------4-4-4-6-----| 
|-------------------------------------------------|-----------------------------| 


|------------------------------------------| 
|--------10-12-10-------10-8-------8-6-----| 
|---8-10----------12---------10--------8---| 
|-9------------------13---------11-------9-| 
|------------------------------------------| 
|------------------------------------------| 

  E        more fast ones 
|-----------------------------|-------------------------------------------------| 
|-----------------------------|-12-10-------10-8-----8-6-----6-4----------------| 
|-------------------6---------|-------10-10------9-8-----8-6-----6-4------------| 
|-----6----------8------9---6-|-------------------------------------------------| 
|-7---------------------------|-------------------------------------------------| 
|-----------------------------|-------------------------------------------------| 

 (bass) 
|-----------------------------|-------------------------------------------------| 
|-----------------------------|-------------------------------------------------| 
|-7---7---7---7---7---7---7---| (continue bass figure)--------------------------| 
|---6---6---6---6---6---6---6-|-------------------------------------------------| 


|---------------------------------| 
|---------------------------------| 
|---------------------------------| 
|---------------------------------| 
|-7-/-13-\\-7-/-13-\\-7-\\-1-/-7-\\-1-| 
|---------------------------------| 

  HALF-TIME 
  C   Lisa\'s Break 
|----------5-------------|----------------------------------------8-11-8-10-8-| 
|----5--7-----8--5-------|----------------------------------------------------| 
|-5--------2-------5-----|-----------5--------------------2-------------------| 
|----2--4-----5--2---7---|--4-4-4--5---2-4-5-4-2------2-4---5-2---------------| 
|-3----------------3-----|-----------------------3--------------3-------------| 
|--------------------5---|--2-2-2--3------------------------------------------| 
| 
|------------------------|----------------------------------------------------| 
|------------------------|----------------------------------------------------| 
|-3-----------4----------|----------------------------------------------------| 
|-------3------------3---|--2-2-2--0------------------------------------------| 

 Double-time March     Regular Feel    
  Eb     B  repeat bass line  
|------------|-------------|--------------------|----------------------------------| 
|------------|-------------|--------------------|----------------------------------| 
|------------|-------------|--------------------|----------------------------------| 
|------------|-------------|--------------------|----------------------------------| 
|-6-----6----|--6-----6----|-222-------222------|----------------------------------| 
|----5-----5-|-----5-----5-|------1--------1-1--|----------------------------------| 

(extra part shown with lick) 
|---------------------------------------|-------------------------------------------| 
|---4-6-7-----6-8------8-10-------10-12-|-14-12-------12-10-------10-8------8-6-----| 
|-4-------6-8-----8-10------10-12-------|-------14-12-------12-10------10-8-----8-6-| 
|---------------------------------------|-------------3-----------------------------| 
|---------------------------------------|-2-----5-----------6~~~--------------------| 
|---------------------------------------|-------------------------------------------| 


(band tacet this bar) 
|----------------|----------------|--------------------|--------------------------| 
|----------------|----------------|--------------------|--------------------------| 
|----------------|----------------|--------------------|--------------------------| 
|----------------|----------------|--------------------|--------------------------| 
|----------------|----------------|--------------------|--------------------------| 
|----------------|----------------|--------------------|--------------------------| 


 Double time feel 
 C      repeat previous figure 
|-8-7-5---5-------|-5---------------|------------------|-------------------| 
|-------8---8-7-8-|---8-7-8-5-------|------------------|-------------------| 
|-----------------|-----------------|------------------|-------------------| 
|-----------------|-----------------|------------------|-------------------| 
|-----------------|-----------------|------------------|-------------------| 
|-----------------|-----------------|------------------|-------------------| 
|                               repeat bass figure 
|-----------------|-----------------|------------------|-------------------| 
|-----------------|-----------------|------------------|-------------------| 
|-3-------3-------|-3-------3-------|------------------|-------------------| 
|-----3-------3---|-----3-------3---|------------------|-------------------| 

 Eb 
|-----------------|---------------|-------------------|------------------------| 
|---------------4-|---------------|-------------------|------------------------| 
|-----3-------5-5-|-6---3---------|-------------------|------------------------| 
|-5---5-------7---|-8---5---------|-------------------|------------------------| 
|-6---------------|---------------|-------------------|------------------------| 
|-----------------|---------------|-------------------|------------------------| 

    repeat bass figure 
|-----------------|---------------|-------------------|------------------------| 
|-----------------|---------------|-------------------|------------------------| 
|-6---6---6---6---|---------------|-------------------|------------------------| 
|---6---6---6---6-|---------------|-------------------|------------------------| 


  Eb  fast ones 
|---------------------|---|---|----------------------------------11-15-13-11----| 
|---------------------|---|---|----------------------10-11-13-14-------------14-| 
|-----------8/14\\8/14\\|---|---|----------10-12-11-12----------------------------| 
|---------------------|---|---|-13-12-13----------------------------------------| 
|-6/12\\6/12\\----------|---|---|-------------------------------------------------| 

|---------------------|---|---|-------------------------------------------------| 
|---------------------|---|---|-------------------------------------------------| 
|---------------------|---|---|-------------------------------------------------| 
|-6---6---6---6-------|---|---|-6-----------------------------------3-----------| 
|---6---6---6---6-----|---|---|-------------3-----------5-----------------------| 



 Outro - Original Feel 
 C# 
|-------|---------------------------------|-------|---------------------------------| 
|-------|-8-6-----6-4-----4-2-----2-0-----|-------|-----0-2-----2-4-----4-6-----6-8-| 
|-------|-----8-6-----6-4-----4-2-----2-0-|-------|-0-2-----2-4-----4-6-----6-8-----| 
|-------|---------------------------------|-------|---------------------------------| 
|-------|---------------------------------|-------|---------------------------------| 
|-------|---------------------------------|-------|---------------------------------| 

 
|-------|---------------------------------|-------|---------------------------------| 
|-------|---------------------------------|-------|---------------------------------| 
|-4-----|-4--4--4-------------------------|-4-----|-4--4--4-------------------------| 
|----3--|---------------3----3------------|-----3-|------------3--3-----------------| 
|-------|---------------------------------|-------|---------------------------------| 
|-------|---------------------------------|-------|--6-6-6-6------------------------| 

|------------3-|------------|------------------|------------|--6-6-6-6-------------| 
|------3--5----|-6-3--------|------------------|------------|--6-6-6-6-------------| 
|-4------------|-----4------|------------------|---------2--|--4-4-4-4-------------| 
|--------------|---------6--|--3-3-3-4---3-3-4-|-3-3-3-4----|----------------------|

 
Corrections on this Tab :  
Corrections are brief messages that point out specific errors and how they can be fixed. These corrections are intended to correct and enhance the tabs in this archive, so that the overall quality can be improved. Please do not make a correction unless you have something usefull to say that will improve the tabs in this archive. 
  Click Here to View the Corrections
            
Submit corrections


        Simpsons lessons Hard to play? Try these video lessons and learn fast Simpsons lessons
        
↑ Back to top | Tablatures and chords for acoustic guitar and electric guitar, ukulele, drums are parodies/interpretations of the original songs. You may use it for private study, scholarship, research or language learning purposes only