» » »

Simple Plan - Untitled Tabs

Artists:  A B C D E F G H I J K L M N O P Q R S T U V W X Y Z # 

Untitled Tabs

(ver. 1) Click to play this song!
Simple Plan
 Rating:
4/5 (4 votes)


 Untitled lessons Tabs too difficult? Try these video lessons and learn fast
 
                Untitled by Simple Plan

..THIS IS ONE OF MY MASTERPIECES AND THIS SONG IS ALSO ONE OF THE BEST SONGS FROM SIMPLE PLAN...

INTRO:
	      G
e-----3---5---7-----------------|
B---3---3---3---3---------------|
G-0--------------0--------------|     3x
D-------------------------------|
A-------------------------------|
E-------------------------------|

e-----3---5---7-----------------|
B---3---3---3-------------------|
G-0-----------------------------|     
D-------------------------------|
A-------------------------------|
E-------------------------------|

VERSE 1:
..i OPENED MY EYES..
	       Em
e-----0---2----3----------------|
B---0---0---0-------------------|
G-------------------------------|     
D-2-----------------------------|     2X
A-------------------------------|
E-------------------------------|
		
..WHITE LIGHT..
		G
e-----3---5---7-----------------|
B---3---3---3-------------------|
G-0-----------------------------|     
D-------------------------------|     2X
A-------------------------------|
E-------------------------------|

..I CAN'T REMEMBER HOW...
		Em
e-----0---2----3----------------|
B---0---0---0-------------------|
G-------------------------------|
D-2-----------------------------|     2X
A-------------------------------|
E-------------------------------|

..I'M LYIN' HERE TONIGHT..
		G				D			
e-----3---5---7-----------------|-----3---2--0------------------|
B---3---3---3-------------------|---3---------------------------|
G-0-----------------------------|-2-----------------------------|     
D-------------------------------|-------------------------------|    
A-------------------------------|-------------------------------|
E-------------------------------|-------------------------------|

REFRAIN:
..AND I CAN'T STAND THE PAIN..
		C				D		
e-----0----1---0----------------|------2---3----1---------------|
B---1---1----1------------------|----3---3---3------------------|
G-0-----------------------------|-2-----------------------------|   
D-------------------------------|-------------------------------|    
A-------------------------------|-------------------------------|
E-------------------------------|-------------------------------|

..AND I CAN'T MAKE IT GO AWAY
		Em				G
e-----0---2----3----------------|-----3---5---7-----------------|
B---0---0---0-------------------|---3---3---3-------------------|
G-------------------------------|-0-----------------------------|
D-2-----------------------------|-------------------------------|
A-------------------------------|-------------------------------|
E-------------------------------|-------------------------------|

..AND I CANT STAND THE PAIN..
		C				D		
e-----0----1---0----------------|------2---3----2---------------|
B---1---1----1------------------|----3---3---3------------------|
G-0-----------------------------|-2-----------------------------|   
D-------------------------------|-------------------------------|    
A-------------------------------|-------------------------------|
E-------------------------------|-------------------------------|

CHORUS:

..HOW COULD THIS HAPPEN TO ME??..
		G				Em
e-----3---5---7-----------------|-----0---2----3----------------|
B---3---3---3-------------------|---0---0---0-------------------|
G-0-----------------------------|-------------------------------|     
D-------------------------------|-2-----------------------------|
A-------------------------------|-------------------------------|
E-------------------------------|-------------------------------|

..THE NIGHT GOES ON..
		C				D
e-----0----1---0----------------|------3--2----0----------------|
B---1---1----1------------------|----3--------------------------|
G-0-----------------------------|-2-----------------------------|   
D-------------------------------|-------------------------------|    
A-------------------------------|-------------------------------|
E-------------------------------|-------------------------------|

..I'M SICK OF THIS LIFE..
		G				Em
e-----3---5---7-----------------|-----0---2----3----------------|
B---3---3---3-------------------|---0---0---0-------------------|
G-0-----------------------------|-------------------------------|     
D-------------------------------|-2-----------------------------|
A-------------------------------|-------------------------------|
E-------------------------------|-------------------------------|

..HOW COULD THIS HAPPEN TO ME?..
		C				D
e-----0----1---0----------------|------3--2----0----------------|
B---1---1----1------------------|----3--------------------------|
G-0-----------------------------|-2-----------------------------|   
D-------------------------------|-------------------------------|    
A-------------------------------|-------------------------------|
E-------------------------------|-------------------------------|

	      G
e-----3---5---7-----------------|
B---3---3---3---3---------------|
G-0--------------0--------------|     2x
D-------------------------------|
A-------------------------------|
E-------------------------------|


VERSE2:
..EVERYBODY'S SCREAMIN'..
		Em
e-----0---2----3----------------|
B---0---0---0-------------------|
G-------------------------------|     
D-2-----------------------------|     2X
A-------------------------------|
E-------------------------------|

..HEARS ME..
		G		
e-----3---5---7-----------------|
B---3---3---3-------------------|
G-0-----------------------------|     
D-------------------------------|     2X
A-------------------------------|
E-------------------------------|

..I'M SLIPPIN' OF THE EDGE..
		Em
e-----0---2----3----------------|
B---0---0---0-------------------|
G-------------------------------|     
D-2-----------------------------|     2X
A-------------------------------|
E-------------------------------|

..I WANNA START THIS OVER AGAIN..
		G				D			
e-----3---5---7-----------------|-----3---2--0------------------|
B---3---3---3-------------------|---3---------------------------|
G-0-----------------------------|-2-----------------------------|     
D-------------------------------|-------------------------------|    
A-------------------------------|-------------------------------|
E-------------------------------|-------------------------------|

REFRAIN:
..SO I TRY TO HOLD..
		C				D		
e-----0----1---0----------------|------2---3----1---------------|
B---1---1----1------------------|----3---3---3------------------|
G-0-----------------------------|-2-----------------------------|   
D-------------------------------|-------------------------------|    
A-------------------------------|-------------------------------|
E-------------------------------|-------------------------------|

..ONTO A TIMES WHEN..
		Em				G
e-----0---2----3----------------|-----3---5---7-----------------|
B---0---0---0-------------------|---3---3---3-------------------|
G-------------------------------|-0-----------------------------|
D-2-----------------------------|-------------------------------|
A-------------------------------|-------------------------------|
E-------------------------------|-------------------------------|

..AND I CANT STAND THE PAIN..
		C				D		
e-----0----1---0----------------|------2---3----2---------------|
B---1---1----1------------------|----3---3---3------------------|
G-0-----------------------------|-2-----------------------------|   
D-------------------------------|-------------------------------|    
A-------------------------------|-------------------------------|
E-------------------------------|-------------------------------|

CHORUS:

..HOW COULD THIS HAPPEN TO ME??..
		G				Em
e-----3---5---7-----------------|-----0---2----3----------------|
B---3---3---3-------------------|---0---0---0-------------------|
G-0-----------------------------|-------------------------------|     
D-------------------------------|-2-----------------------------|
A-------------------------------|-------------------------------|
E-------------------------------|-------------------------------|

..THE NIGHT GOES ON..
		C				D
e-----0----1---0----------------|------3--2----0----------------|
B---1---1----1------------------|----3--------------------------|
G-0-----------------------------|-2-----------------------------|   
D-------------------------------|-------------------------------|    
A-------------------------------|-------------------------------|
E-------------------------------|-------------------------------|

..I'M SICK OF THIS LIFE..
		G				Em
e-----3---5---7-----------------|-----0---2----3----------------|
B---3---3---3-------------------|---0---0---0-------------------|
G-0-----------------------------|-------------------------------|     
D-------------------------------|-2-----------------------------|
A-------------------------------|-------------------------------|
E-------------------------------|-------------------------------|

..HOW COULD THIS HAPPEN TO ME?..
		C				D
e-----0----1---0----------------|------3--2----0----------------|
B---1---1----1------------------|----3--------------------------|
G-0-----------------------------|-2-----------------------------|   
D-------------------------------|-------------------------------|    
A-------------------------------|-------------------------------|
E-------------------------------|-------------------------------|

SOLO:
..I'M NOT QUITE SURE OF THE TABS IN THE SOLO...BUT THE CHORD PATTERNS IS:

Em G D C Em G D C Em

e|----------------------------|
B|----------------------------|
G|----------------------------|
D|---------8/10-8-6-8---------|
A|---6-6-8--------------------|
E|----------------------------|

e|-----------------------------------|
B|-----------------10/14-11-9-9h11-9-|
G|------------8-10-------------------|
D|---6-8-8/10------------------------|
A|-----------------------------------|
E|-----------------------------------|

e|---9-8-----------------------------|
B|-------9---------------------------|
G|---------8-10-8--------------------|
D|-----------------------------------|
A|-----------------------------------|
E|-----------------------------------|

CHORUS:

..HOW COULD THIS HAPPEN TO ME??..
		G				Em
e-----3---5---7-----------------|-----0---2----3----------------|
B---3---3---3-------------------|---0---0---0-------------------|
G-0-----------------------------|-------------------------------|     
D-------------------------------|-2-----------------------------|
A-------------------------------|-------------------------------|
E-------------------------------|-------------------------------|

..THE NIGHT GOES ON..
		C				D
e-----0----1---0----------------|------3--2----0----------------|
B---1---1----1------------------|----3--------------------------|
G-0-----------------------------|-2-----------------------------|   
D-------------------------------|-------------------------------|    
A-------------------------------|-------------------------------|
E-------------------------------|-------------------------------|

..I'M SICK OF THIS LIFE..
		G				Em
e-----3---5---7-----------------|-----0---2----3----------------|
B---3---3---3-------------------|---0---0---0-------------------|
G-0-----------------------------|-------------------------------|     
D-------------------------------|-2-----------------------------|
A-------------------------------|-------------------------------|
E-------------------------------|-------------------------------|

..HOW COULD THIS HAPPEN TO ME?..
		C				D
e-----0----1---0----------------|------3--2----0----------------|
B---1---1----1------------------|----3--------------------------|
G-0-----------------------------|-2-----------------------------|   
D-------------------------------|-------------------------------|    
A-------------------------------|-------------------------------|
E-------------------------------|-------------------------------|


can upload a video for this....(o_o)
            
Submit corrections



        Untitled lessons Hard to play? Try these video lessons and learn fast Untitled lessons
        
↑ Back to top | Tablatures and chords for acoustic guitar and electric guitar, ukulele, drums are parodies/interpretations of the original songs. You may use it for private study, scholarship, research or language learning purposes only