Home » S » Simple Plan »

Simple Plan - What If Tabs

Artists:  A B C D E F G H I J K L M N O P Q R S T U V W X Y Z # 

What If Tabs

(ver. 3) Click to play this song!
Simple Plan
Tunning: Drop D

Pre-chords (X2)

------------------------------------------|
------------------------------------------|
---------------5-5-5--3-5--x-x--6-6--1-1--|
---------------5-5-5--3-5--x-x--6-6--1-1--|
---------------3-3-3--1-3--x-x--6-6--1-1--|
------------------------------------------|

-------------------------------------------|
-------------------------------------------|
---------------8-8-8-6-8--x-x--6-6--1-1----|
---------------8-8-8-6-8--x-x--6-6--1-1----|
---------------8-8-8-6-8--x-x--6-6--1-1----|

Verse
"I remember going back"
(X4)
------------------------------------------------------|
------------------------------------------------------|
----5-5-5-5-5-----------------------------------------|
----5-5-5-5-5-6-6-6-6-6-6-6-6-6-6-8-8-8-8-8-8-8-8-8-8-|
----3-3-3-3-3-6-6-6-6-6-6-6-6-6-6-8-8-8-8-8-8-8-8-8-8-|
--------------6-6-6-6-6-6-6-6-6-6-8-8-8-8-8-8-8-8-8-8-|


"'Cause the world keeps turning"


------------------------------------------------------|
------------------------------------------------------|
----3-3-3-3-3-----------------------------------------|
----5-5-5-5-5-6-6-6-6-6-6-6-6-6-6-8-8-8-8-8-8-8-8-8-8-|
----5-5-5-5-5-6-6-6-6-6-6-6-6-6-6-8-8-8-8-8-8-8-8-8-8-|
--------------6-6-6-6-6-6-6-6-6-6-8-8-8-8-8-8-8-8-8-8-|
              {                   X2                  }


Chords
"What if I change the world"
(X2)
---------------------------------------------------|
---------------------------------------------------|
----5-5-5-5-5-----------8-8-8-8-8------------------|
----5-5-5-5-5-6-6-6-6-6-8-8-8-8-8-8-8-8-8-8--------|
----3-3-3-3-3-6-6-6-6-6-6-6-6-6-6-8-8-8-8-8--------|
--------------6-6-6-6-6-----------8-8-8-8-8--------|

"What if I can't go on without you
------------------------------------------------------|
------------------------------------------------------|
----5-5-5-5-5-----------------------------------------|
----5-5-5-5-5-6-6-6-6-6-6-6-6-6-6-8-8-8-8-8-8-8-8-8-8-|
----3-3-3-3-3-6-6-6-6-6-6-6-6-6-6-8-8-8-8-8-8-8-8-8-8-|
--------------6-6-6-6-6-6-6-6-6-6-8-8-8-8-8-8-8-8-8-8-|
              {                  X2                  }

Pre-chords (X2)

------------------------------------------|
------------------------------------------|
---------------5-5-5--3-5--x-x--6-6--1-1--|
---------------5-5-5--3-5--x-x--6-6--1-1--|
---------------3-3-3--1-3--x-x--6-6--1-1--|
------------------------------------------|

-------------------------------------------|
-------------------------------------------|
---------------8-8-8-6-8--x-x--6-6--1-1----|
---------------8-8-8-6-8--x-x--6-6--1-1----|
---------------8-8-8-6-8--x-x--6-6--1-1----|

Verse
"Slowly givin' up"
(X4)
------------------------------------------------------|
------------------------------------------------------|
----5-5-5-5-5-----------------------------------------|
----5-5-5-5-5-6-6-6-6-6-6-6-6-6-6-8-8-8-8-8-8-8-8-8-8-|
----3-3-3-3-3-6-6-6-6-6-6-6-6-6-6-8-8-8-8-8-8-8-8-8-8-|
--------------6-6-6-6-6-6-6-6-6-6-8-8-8-8-8-8-8-8-8-8-|


"'Cause the world keeps turning"
(X2)

------------------------------------------------------|
------------------------------------------------------|
----3-3-3-3-3-----------------------------------------|
----5-5-5-5-5-6-6-6-6-6-6-6-6-6-6-8-8-8-8-8-8-8-8-8-8-|
----5-5-5-5-5-6-6-6-6-6-6-6-6-6-6-8-8-8-8-8-8-8-8-8-8-|
--------------6-6-6-6-6-6-6-6-6-6-8-8-8-8-8-8-8-8-8-8-|
              {                   X2                  }

Chords
"What if I change the world"
---------------------------------------------------|
---------------------------------------------------|
----5-5-5-5-5-----------8-8-8-8-8------------------|
----5-5-5-5-5-6-6-6-6-6-8-8-8-8-8-8-8-8-8-8--------|
----3-3-3-3-3-6-6-6-6-6-6-6-6-6-6-8-8-8-8-8--------|
--------------6-6-6-6-6-----------8-8-8-8-8--------|

"What if I can't go on without you"
------------------------------------------------------|
------------------------------------------------------|
----5-5-5-5-5-----------------------------------------|
----5-5-5-5-5-6-6-6-6-6-6-6-6-6-6-8-8-8-8-8-8-8-8-8-8-|
----3-3-3-3-3-6-6-6-6-6-6-6-6-6-6-8-8-8-8-8-8-8-8-8-8-|
--------------6-6-6-6-6-6-6-6-6-6-8-8-8-8-8-8-8-8-8-8-|
              {                  X3                  }


"What if I don't What if I don't What if I don't"
-----------------------------------------|
-----------------------------------------|
-10-10-----------------------------------|
-10-10-----------------------------------|
-10-10-----------------------------------|
-----------------------------------------|


"I'll be waiting here for you to call me"
-----------------------------------------------------|
-----------------------------------------------------|
------------------------------5-5--5-----------------|
-1-1--1-----------6-6---------5-5--5--------8-8------|
-1-1--1-----------6-6---------3-3--3--------8-8------|
-1-1--1-----------6-6-----------------------8-8------|
[PM]             [PM]        [PM]

[PM]
-----------------------------------------------------|
-----------------------------------------------------|
-----------------------------------------------------|
-1-1-1-1-1---6-6-6-6-6--5-5-5-5-5--8-8-8-8-8---------|
-1-1-1-1-1---6-6-6-6-6--3-3-3-3-3--8-8-8-8-8---------|
-1-1-1-1-1---6-6-6-6-6-------------8-8-8-8-8---------|


"Ohhhhhh"
(X2)
-----------------------------------------------------|
-----------------------------------------------------|
-----------------------------------------------------|
-1-1-1-1-1---6-6-6-6-6--5-5-5-5-5--8-8-8-8-8---------|
-1-1-1-1-1---6-6-6-6-6--3-3-3-3-3--8-8-8-8-8---------|
-1-1-1-1-1---6-6-6-6-6-------------8-8-8-8-8---------|

Chords
"What if I lead the way"
---------------------------------------------------|
---------------------------------------------------|
----5-5-5-5-5-----------8-8-8-8-8------------------|
----5-5-5-5-5-6-6-6-6-6-8-8-8-8-8-8-8-8-8-8--------|
----3-3-3-3-3-6-6-6-6-6-6-6-6-6-6-8-8-8-8-8--------|
--------------6-6-6-6-6-----------8-8-8-8-8--------|

"I'll  be waiting here"
-----------------------------------------------------|
-----------------------------------------------------|
-----------------------------------------------------|
-1-1-1-1-1---6-6-6-6-6--5-5-5-5-5--8-8-8-8-8---------|
-1-1-1-1-1---6-6-6-6-6--3-3-3-3-3--8-8-8-8-8---------|
-1-1-1-1-1---6-6-6-6-6-------------8-8-8-8-8---------|


finish with:
------------------|
------------------|
-------------6----|
----------8--6--8-|
----------8--8--8-|
----------8-----8-|
            
Submit corrections

↑ Back to top | Tablatures and chords for acoustic guitar and electric guitar, ukulele, drums are parodies/interpretations of the original songs. You may use it for private study, scholarship, research or language learning purposes only