» » »

Silversun Pickups - Shadowplay Tabs

Artists:  A B C D E F G H I J K L M N O P Q R S T U V W X Y Z # 

Shadowplay Tabs

(ver. 1) Click to play this song!
Silversun Pickups
 Rating:
4/5 (4 votes)

 Shadowplay lessons Tabs too difficult? Try these video lessons and learn fast
 
                This is the tab for the cover version of Joy Divisions Shadowplay, performed by the 
Pickups Brian Aubert.

The number of strokes is more of a guidline, listen to the video to work it out.

part 1.
e|-3-3-3-3-3-3-3\---5-5-5-5-5-5-5---0-0-0-0-0-0-------------------------|
B|-4-4-4-4-4-4-4\---6-6-6-6-6-6-6---0-0-0-0-0-0-------------------------|
G|-3-3-3-3-3-3-3\---5-5-5-5-5-5-5---0-0-0-0-0-0-------------------------|
D|-5-5-5-5-5-5-5\---7-7-7-7-7-7-7---2-2-2-2-2-2-------------------------|
A|-3-3-3-3-3-3-3\---5-5-5-5-5-5-5---2-2-2-2-2-2-------------------------|
E|-3-3-3-3-3-3-3\---5-5-5-5-5-5-5---0-0-0-0-0-0-------------------------|

part 2.
e|-3-3-3-3\--5-5-5-5-5---0-0-2-2-0-0-----------|
B|-1-1-1-1\--3-3-3-3-3---0-0-0-0-0-0-----------|
G|-0-0-0-0\--0-0-0-0-0---0-0-0-0-0-0-----------|
D|-2-2-2-2\--2-2-2-2-2---2-2-2-2-2-2-----------|
A|-3-3-3-3\--5-5-5-5-5---2-2-2-2-2-2-----------|
E|-0-0-0-0\--0-0-0-0-0---0-0-0-0-0-0-----------|

Those are the two parts to the song, there isnt really anything else to add.

Part 1 alternate
e|---------------------------|
B|---------------------------|
G|---------------------------|
D|-10-10--12-12--14-14-------|
A|-10-10--12-12--14-14-------|
E|- 8- 8--10-10--12-12-------|
or
e|-------------------------|
B|-------------------------|
G|-------------------------|
D|-10-10--12-12---2-2------|
A|-10-10--12-12---2-2------|
E|- 8- 8--10-10---0-0------|

Part 2. alternate

e|-3-3-3-3-3-3-3\---5-5-5-5-5-5-5---0-0-0-0-0-0-------------------------|
B|-3-3-3-3-3-3-3\---5-5-5-5-5-5-5---0-0-0-0-0-0-------------------------|
G|-5-5-5-5-5-5-5\---7-7-7-7-7-7-7---0-0-0-0-0-0-------------------------|
D|-3-3-3-3-3-3-3\---5-5-5-5-5-5-5---2-2-2-2-2-2-------------------------|
A|-3-3-3-3-3-3-3\---5-5-5-5-5-5-5---2-2-2-2-2-2-------------------------|
E|-3-3-3-3-3-3-3\---5-5-5-5-5-5-5---0-0-0-0-0-0-------------------------|

I know the 2nd part isnt 100% correct because i know there are some hammer on's in there 
with brians typical muting techniques. But this sounds pretty close to me.

If and one can suggest improvements get in touch!
            
Submit corrections


        Shadowplay lessons Hard to play? Try these video lessons and learn fast Shadowplay lessons
        
↑ Back to top | Tablatures and chords for acoustic guitar and electric guitar, ukulele, drums are parodies/interpretations of the original songs. You may use it for private study, scholarship, research or language learning purposes only