» » »

Silversun Pickups - Nightlight Tabs

Artists:  A B C D E F G H I J K L M N O P Q R S T U V W X Y Z # 

Nightlight Tabs

(ver. 1) Click to play this song!
Silversun Pickups
 Rating:
1.8/5 (30 votes)

 Nightlight  lessons Tabs too difficult? Try these video lessons and learn fast
 
                Tuning: D A D G B E (Drop D)
(0:07-0:22) Intro/Chorus
e|---------------------------------------------------------------------------|
B|---------------------------------------------------------------------------|
G|---------------------------------------------------------------------------|
D|-9-------7------5----------------------------------------------------------| (x2)
A|-9(x16)--7(x8)--5(x8)------------------------------------------------------|
E|-9-------7------5----------------------------------------------------------|

(0:53-0:56) Pre-Chorus
e|---------------------------------------------------------------------------|
B|---------------------------------------------------------------------------|
G|-4-------------------------------------------------------------------------|
D|-2-------------------------------------------------------------------------| (x1)
A|-2(x16)--------------------------------------------------------------------|
E|-2-------------------------------------------------------------------------|

(0:56-1:08) Chorus
e|---------------------------------------------------------------------------|
B|---------------------------------------------------------------------------|
G|---------------------------------------------------------------------------|
D|-5------4------2-------5------7--------------------------------------------|
A|-5(x8)--4(x8)--2(x16)--5(x8)--7(x8)----------------------------------------|
E|-5------4------2-------5------7--------------------------------------------|

(1:09-1:23)
Repeat Intro/Chorus (x2)

(1:24-1:53) Verse Solo
e|---------------------------------------------------------------------------|
B|---------------------------------------------------------------------------|
G|--------9-11--------------------------------9h11---------------------------|
D|-9-12-9-------9---------OR---------9-12-9-12------9------------------------|
A|---------------------------------------------------------------------------|
E|---------------------------------------------------------------------------|
(1:53-1:57)
Repeat Pre-Chorus

(1:58-2:09)
Repeat Chorus

(2:10-2:40)
Repeat Intro/Chorus (x4)

(2:55-3:09)
Play Verse Solo

(3:10-3:21)
Repeat Chorus (End on barred 9(Let Ring) after you play the barred 7)
(3:22-3:52)
e|--------------------------------------------------------------------------------|
B|--------------------------------------------------------------------------------|
G|--------------------------------------------------------------------------------|
D|-2-------------5-------------0-------------2------------7------------9----------|
A|-2-Let Ring----5-Let Ring----0-Let Ring----2-Let Ring---7-Let Ring---9-Let Ring-| (x2)
E|-2-------------5-------------0-------------2------------7------------9----------|
(3:53-4:23)
Repeat Intro/Chorus (x4)
(4:24-4:36) (You'll be coming into this last part on a barred 9th fret (Let Ring))
e|--------------------------------------------------------------------------------|
B|--------------------------------------------------------------------------------|
G|--------------------------------------------------------------------------------|
D|--7-----------0------------5-----------9------------7-----------0------------5--|
A|--7-Let Ring--0-Let Ring---5-Let Ring--9-Let Ring---7-Let Ring--0-Let Ring---5--|Let Ring
E|--7-----------0------------5-----------9------------7-----------0------------5--|            
Submit corrections


        Nightlight  lessons Hard to play? Try these video lessons and learn fast Nightlight  lessons
        
↑ Back to top | Tablatures and chords for acoustic guitar and electric guitar, ukulele, drums are parodies/interpretations of the original songs. You may use it for private study, scholarship, research or language learning purposes only