Home » S » Silversun Pickups »

Silversun Pickups - Latchkey Kids Bass

Artists:  A B C D E F G H I J K L M N O P Q R S T U V W X Y Z # 

Latchkey Kids Bass

(ver. 1) Click to play this song!
Silversun Pickups
[Intro]

G|---------------------------------------------------------------------------|
D|---------------------------------------------------------------------------| 
A|-66666666\44444444---------------------------------------------66666666----|  x2
E|------------------66666666/77777777\22222222/44444444/66666666-------------|


[Verse 1] "You keep..."

G|---------------------------------------------------------------------------|
D|---------------------------------------------------------------------------|
A|-66666666\44444444---------------------------------------------66666666----| x2
E|------------------66666666/77777777\22222222/44444444/66666666-------------|


[Chorus] "We're outside..."

G|---------------------------------------------------------------------------------------------------|
D|---------------------------------------------------------------------------------------------------|
A|----------------6666666666666666-----------------------------------66666666666666666666666666666666|
E|--7~-----4~----------------------7777777777777777\4444444444444444---------------------------------|


[Verse 2] "We've been..."

G|---------------------------------------------------------------------------|
D|---------------------------------------------------------------------------|
A|-66666666\44444444---------------------------------------------66666666----| x2
E|------------------66666666/77777777\22222222/44444444/66666666-------------|


[Chorus 2]

G|---------------------------------------------------------------------------------------------------|
D|---------------------------------------------------------------------------------------------------|
A|----------------------------------------666666666666666666\444444444444444444----------------------|
E|--777777777777777777\444444444444444444------------------------------------------------------------|

G|---------------------------------------------------------------------------------------------------|
D|---------------------------------------------------------------------------------------------------|
A|-----------------------------------------444444444444444444444444444444444444----------------------|
E|--777777777777777777\4444444444444444444-----------------------------------------------------------|


[Bridge] "Be still..."  

G|-------------------------------------------------------------------------------------------|
D|-------------------------------------------------------------------------------------------|
A|---------------------------6-6-66666666---6-6-66666666-------------------------------------|
E|--7-7-7-77----4-4-4444---------------------------------------------------------------------|

G|-------------------------------------------------------------------------------------------|
D|-------------------------------------------------------------------------------------------|
A|---------------------------6-6-66666666---6-6-66666666-------------------------------------|
E|--7-7-7-77----4-4-4444---------------------------------------------------------------------|


[Break]


[Chorus 3]

G|---------------------------------------------------------------------------------------------------|
D|---------------------------------------------------------------------------------------------------|
A|--------------------------------6666666666666\4444444444444----------------------------------------|
E|--777777777777777\4444444444444--------------------------------------------------------------------|

G|---------------------------------------------------------------------------------------------------|
D|---------------------------------------------------------------------------------------------------|
A|--------------------------------444444444444444444444----------------------------------------------|
E|--777777777777777\4444444444444--------------------------------------------------------------------|



[Outro]

G|---------------------------------------------------------------------------|
D|---------------------------------------------------------------------------|
A|--6-6-6666----6-6-6666----6-6-6666----6-6-6666-----------------------------|
E|---------------------------------------------------------------------------|

G|---------------------------------------------------------------------------|
D|---------------------------------------------------------------------------|
A|---------------------------------------------------------------------------|
E|--7777777777777777\44444---------------------------------------------------|            
Submit corrections

↑ Back to top | Tablatures and chords for acoustic guitar and electric guitar, ukulele, drums are parodies/interpretations of the original songs. You may use it for private study, scholarship, research or language learning purposes only