» » »

Silversun Pickups - Dont Know Yet Tabs

Artists:  A B C D E F G H I J K L M N O P Q R S T U V W X Y Z # 

Dont Know Yet Tabs

(ver. 1) Click to play this song!
Silversun Pickups
 Rating:
4.3/5 (26 votes)

 Dont Know Yet lessons Tabs too difficult? Try these video lessons and learn fast
 
                [Intro]

Keyboard Chords (4 bars repeating):

Am    C              Dm    C    F



[Verse]

Same Keyboard part, Lyrics:

"Oooh, I need a fresh start now, reboot the machine
Oooh, I'm a ghost up in the clouds now, so frightening
Oooh, face down in a fountain, soaking wet
Oooh, my body's growing into my silhouette"



[PreChorus]

Lyrics:

"I can see now you wanted to play
Hurry back, I think they're closing the gate
But I fear it's just a moment too late"


PreChorus ending-

    Distorted Tremelo guitar:           Added acoustic: 
e|------------------------------|------1--1--1--1--1--1--1---|
B|------------------------------|------1--1--1--1--1--1--1---|
G|------------------------------|------2--2--2--2--2--2--2---|
D|--3---------------------------|------3--3--3--3--3--3--3---|
A|--3---------------------------|------3--3--3--3--3--3--3---|
E|--1---------------------------|------1--1--1--1--1--1--1---|
    let ring


[Chorus]

    Distorted guitar (swing beat rhythm, short beats are marked)

    1       2       3      4          1      2      3     4
e|--1---------------3------3-------|--5------5----1-------1--------|
B|--1---------------3------3-------|--5------5----1-------1--------|
G|--2---------------4------4-------|--5------5----2-------2--------|
D|--3---------------5------5-------|--7------7----3-------3--------|
A|--3---------------5------5-------|--7------7----3-------3--------|
E|--1---------------3------3-------|--5------5----1-------1--------|
                           s                 s            s 
 "Don't know what you're gunning for should I hit the deck, fall through the floor?"


    1      2      3     4         1     2     3     4
e|--1-------------3-----3------|--5-----5------------------|
B|--1-------------3-----3------|--5-----5-----0-----0------|
G|--2-------------4-----4------|--5-----5-----4-----4------|
D|--3-------------5-----5------|--7-----7-----5-----5------|
A|--3-------------5-----5------|--7-----7-----3-----3------|
E|--1-------------3-----3------|--5-----5------------------|
                        s               s           s 
 "Don't know what you're thinking of Do I chip away or keep defenses" 


    1       2      3      4         1     2     3     4
e|--1--------------3------3------|--5-----5-----3-----3---1--|
B|--1--------------3------3------|--5-----5-----3-----3---1--|
G|--2--------------4------4------|--5-----5-----4-----4---2--|
D|--3--------------5------5------|--7-----7-----5-----5---3--|
A|--3--------------5------5------|--7-----7-----5-----5---3--|
E|--1--------------3------3------|--5-----5-----3-----3---1--|
                          s               s           s
  "up?     Don't   make a sound  if it gets too loud will you hear me come"


    1     2     3     4          1     2     3     4
e|--1-----1---1-1-----1---1---|--------1---1-1-----1---1---|
B|--1-----1---1-1-----1---1---|--------1---1-1-----1---1---|
G|--2-----2---2-2-----2---2---|--------2---2-2-----2---2---|
D|--3-----3---3-3-----3---3---|--------3---3-3-----3---3---|
A|--3-----3---3-3-----3---3---|--------3---3-3-----3---3---|
E|--1-----1---1-1-----1---1---|--------1---1-1-----1---1---|
              s                            s
  "around?"

   2nd Guitar - slow bend release
e|----------------------------|-----------------------------|
B|--10pb13r-------------------|-----------------------------|
G|----------------------------|-----------------------------|
D|----------------------------|-----------------------------|
A|----------------------------|-----------------------------|
E|----------------------------|-----------------------------|



[Verse 2]

lyrics:
"Oooh, Fade into the sounds that we can't avoid
Oooh, I'm addicted to the soundtrack, I need the noise



[Prechorus 2]

"Are you screaming from the other side?
Believe me, I know what it's like
To lay awake all through the night"

PreChorus ending-

    Distorted Tremelo guitar:           Added acoustic: 
e|------------------------------|------1--1--1--1--1--1--1---|
B|------------------------------|------1--1--1--1--1--1--1---|
G|------------------------------|------2--2--2--2--2--2--2---|
D|--3---------------------------|------3--3--3--3--3--3--3---|
A|--3---------------------------|------3--3--3--3--3--3--3---|
E|--1---------------------------|------1--1--1--1--1--1--1---|
    let ring


[Chorus 2]

    Distorted guitar (swing beat rhythm, short beats are marked)

    1       2       3      4          1      2      3     4
e|--1---------------3------3-------|--5------5----1-------1--------|
B|--1---------------3------3-------|--5------5----1-------1--------|
G|--2---------------4------4-------|--5------5----2-------2--------|
D|--3---------------5------5-------|--7------7----3-------3--------|
A|--3---------------5------5-------|--7------7----3-------3--------|
E|--1---------------3------3-------|--5------5----1-------1--------|
                           s                 s            s 
 "Don't know what you're gunning for should I hit the deck, fall through the floor?"


    1      2      3     4         1     2     3     4
e|--1-------------3-----3------|--5-----5------------------|
B|--1-------------3-----3------|--5-----5-----0-----0------|
G|--2-------------4-----4------|--5-----5-----4-----4------|
D|--3-------------5-----5------|--7-----7-----5-----5------|
A|--3-------------5-----5------|--7-----7-----3-----3------|
E|--1-------------3-----3------|--5-----5------------------|
                        s               s           s 
 "Don't know what you're thinking of Do I chip away or keep defenses" 


    1       2      3      4         1     2     3     4
e|--1--------------3------3------|--5-----5-----3-----3---1--|
B|--1--------------3------3------|--5-----5-----3-----3---1--|
G|--2--------------4------4------|--5-----5-----4-----4---2--|
D|--3--------------5------5------|--7-----7-----5-----5---3--|
A|--3--------------5------5------|--7-----7-----5-----5---3--|
E|--1--------------3------3------|--5-----5-----3-----3---1--|
                          s               s           s
  "up?     Don't   make a sound  if it gets too loud will you hear me come"


    1     2     3     4          1     2     3     4
e|--1-----1---1-1-----1---1---|--------1---1-1-----1---1---|
B|--1-----1---1-1-----1---1---|--------1---1-1-----1---1---|
G|--2-----2---2-2-----2---2---|--------2---2-2-----2---2---|
D|--3-----3---3-3-----3---3---|--------3---3-3-----3---3---|
A|--3-----3---3-3-----3---3---|--------3---3-3-----3---3---|
E|--1-----1---1-1-----1---1---|--------1---1-1-----1---1---|
              s                            s
  "around?"

   2nd Guitar - slow bend release
e|----------------------------|-----------------------------|
B|--10pb13r-------------------|-----------------------------|
G|----------------------------|-----------------------------|
D|----------------------------|-----------------------------|
A|----------------------------|-----------------------------|
E|----------------------------|-----------------------------|


repeat Chorus 2, then repeat ending strums (4 bars total):

    1     2     3     4          1     2     3     4
e|--1-----1---1-1-----1---1---|--------1---1-1-----1---1---|
B|--1-----1---1-1-----1---1---|--------1---1-1-----1---1---|
G|--2-----2---2-2-----2---2---|--------2---2-2-----2---2---|
D|--3-----3---3-3-----3---3---|--------3---3-3-----3---3---|
A|--3-----3---3-3-----3---3---|--------3---3-3-----3---3---|
E|--1-----1---1-1-----1---1---|--------1---1-1-----1---1---|
              s                            s
 

[Solo Section]

Rhythm guitar plays Chorus chords while lead plays:

   F             G                Am            F              F             G
e|------------------------------|----------------------------|------------------------------|
B|------------------------------|---------------6--5--3------|------------------------------|
G|-----5-4-5---4-5/7~-----------|-----5-4-5--4---------------|-----5-4-5---4-5/7~-----------|
D|---------------------5--7~----|----------------------------|---------------------5--7~----|
A|------------------------------|----------------------------|------------------------------|
E|------------------------------|----------------------------|------------------------------|

   Am            Cmaj7          F           G                Am            G
e|----------------------------|----------------------------|----------------------------|
B|---------------6--5--3------|----------------------------|---------------6--5--3------|
G|-----5-4-5--4-----------5---|-------5---4-5/7~-----------|-----5-4-5--4---------------|
D|----------------------------|-5-----------------5--7~----|----------------------------|
A|----------------------------|----------------------------|----------------------------|
E|----------------------------|----------------------------|----------------------------|

   F
e|------------------------------|------------------------------|
B|------------------------------|------------------------------|
G|-----5-4-5---4-5/7~-----------|-----5-4-5---4-5/7~-----------|
D|---------------------5--7~----|---------------------5--7~----|
A|------------------------------|------------------------------|
E|------------------------------|------------------------------|



[Final Chorus]

Acapella part: 
"Don't know what you're gunning for
Should I hit the deck, fall through the floor?
(What you're gunning for)"


    1      2      3     4         1     2     3     4
e|--1-------------3-----3------|--5-----5------------------|
B|--1-------------3-----3------|--5-----5-----0-----0------|
G|--2-------------4-----4------|--5-----5-----4-----4------|
D|--3-------------5-----5------|--7-----7-----5-----5------|
A|--3-------------5-----5------|--7-----7-----3-----3------|
E|--1-------------3-----3------|--5-----5------------------|
                        s               s           s 
 "Don't know what you're thinking of Do I chip away or keep defenses" 


    1       2      3      4         1     2     3     4
e|--1--------------3------3------|--5-----5-----3-----3---1--|
B|--1--------------3------3------|--5-----5-----3-----3---1--|
G|--2--------------4------4------|--5-----5-----4-----4---2--|
D|--3--------------5------5------|--7-----7-----5-----5---3--|
A|--3--------------5------5------|--7-----7-----5-----5---3--|
E|--1--------------3------3------|--5-----5-----3-----3---1--|
                          s               s           s
  "up?     Don't   make a sound  if it gets too loud will you hear me come"
  (I'll keep defenses up)


    1     2     3     4          1     2     3     4
e|--1-----1---1-1-----1---1---|--------1---1-1-----1---1---|
B|--1-----1---1-1-----1---1---|--------1---1-1-----1---1---|
G|--2-----2---2-2-----2---2---|--------2---2-2-----2---2---|
D|--3-----3---3-3-----3---3---|--------3---3-3-----3---3---|
A|--3-----3---3-3-----3---3---|--------3---3-3-----3---3---|
E|--1-----1---1-1-----1---1---|--------1---1-1-----1---1---|
              s                            s
  "around? (gets too loud...    gets   too   loud)"

   2nd Guitar - slow bend release
e|----------------------------|-----------------------------|
B|--10pb13r-------------------|-----------------------------|
G|----------------------------|-----------------------------|
D|----------------------------|-----------------------------|
A|----------------------------|-----------------------------|
E|----------------------------|-----------------------------|


Repeat Chorus with similar echoes after each line:

    1       2       3      4          1      2      3     4
e|--1---------------3------3-------|--5------5----1-------1--------|
B|--1---------------3------3-------|--5------5----1-------1--------|
G|--2---------------4------4-------|--5------5----2-------2--------|
D|--3---------------5------5-------|--7------7----3-------3--------|
A|--3---------------5------5-------|--7------7----3-------3--------|
E|--1---------------3------3-------|--5------5----1-------1--------|
                           s                 s            s 
 "Don't know what you're gunning for should I hit the deck, fall through the floor?"


    1      2      3     4         1     2     3     4
e|--1-------------3-----3------|--5-----5------------------|
B|--1-------------3-----3------|--5-----5-----0-----0------|
G|--2-------------4-----4------|--5-----5-----4-----4------|
D|--3-------------5-----5------|--7-----7-----5-----5------|
A|--3-------------5-----5------|--7-----7-----3-----3------|
E|--1-------------3-----3------|--5-----5------------------|
                        s               s           s 
 "Don't know what you're thinking of Do I chip away or keep defenses" 


    1       2      3      4         1     2     3     4
e|--1--------------3------3------|--5-----5-----3-----3---1--|
B|--1--------------3------3------|--5-----5-----3-----3---1--|
G|--2--------------4------4------|--5-----5-----4-----4---2--|
D|--3--------------5------5------|--7-----7-----5-----5---3--|
A|--3--------------5------5------|--7-----7-----5-----5---3--|
E|--1--------------3------3------|--5-----5-----3-----3---1--|
                          s               s           s
  "up?     Don't   make a sound  if it gets too loud will you hear me come"


    1     2     3     4          1     2     3     4
e|--1-----1---1-1-----1---1---|--------1---1-1-----1---1---|
B|--1-----1---1-1-----1---1---|--------1---1-1-----1---1---|
G|--2-----2---2-2-----2---2---|--------2---2-2-----2---2---|
D|--3-----3---3-3-----3---3---|--------3---3-3-----3---3---|
A|--3-----3---3-3-----3---3---|--------3---3-3-----3---3---|
E|--1-----1---1-1-----1---1---|--------1---1-1-----1---1---|
              s                            s
  "around? (hear me come around...          hear me come around)"

   2nd Guitar - slow bend release
e|----------------------------|-----------------------------|
B|--10pb13r-------------------|-----------------------------|
G|----------------------------|-----------------------------|
D|----------------------------|-----------------------------|
A|----------------------------|-----------------------------|
E|----------------------------|-----------------------------|


  Repeated Lead riff on Chorus 2nd time:
e|------------------------------|
B|------------------------------|
G|-----5-4-5---4-5/7~-----------|
D|---------------------5--7~----|
A|------------------------------|
E|------------------------------|

            
Submit corrections


        Dont Know Yet lessons Hard to play? Try these video lessons and learn fast Dont Know Yet lessons
        
↑ Back to top | Tablatures and chords for acoustic guitar and electric guitar, ukulele, drums are parodies/interpretations of the original songs. You may use it for private study, scholarship, research or language learning purposes only