» » »

Silversun Pickups - Circadian Rhythm Last Dance Tabs

Artists:  A B C D E F G H I J K L M N O P Q R S T U V W X Y Z # 

Circadian Rhythm Last Dance Tabs

(ver. 1) Click to play this song!
Silversun Pickups
 Rating:
4.3/5 (18 votes)

 Circadian Rhythm Last Dance lessons Tabs too difficult? Try these video lessons and learn fast
 
                [Intro]
Guitar 2
e|------------|------------|------------|
B|------------|------------|------------|
G|-10\\\\-6---|-10\\\\-----|-10---------|
D|------------|--------6---|--------8---| x2
A|-8\\\\\-4---|-8\\\\\-----|-8----------|
E|------------|--------4---|--------6---|

[Verse 1]
Guitar 1 (starts at "Standing arm and arm ...")
   C#             G#       A#m
   PM-------------------------------------------|
e|--------------|--------|--------------|--------|
B|--------------|--------|--------------|--------|
G|-6--6-6-6-6-6-|--------|--------------|--------|
D|-6--6-6-6-6-6-|-6----6-|-8--8-8-8-8-8-|-8----8-|x2
A|-4--4-4-4-4-4-|-6----6-|-8--8-8-8-8-8-|-8----8-|
E|--------------|-4----4-|-6--6-6-6-6-6-|-6----6-|

[Instrumental] (Guitar 1, 2 and 3 together)
Guitar 1
   PM-------------------------------------------------|
e|-----------------|--------|-----------------|--------|
B|-----------------|--------|-----------------|--------|
G|-6-6-6-6-6-6-6-6-|--------|-----------------|--------|
D|-6-6-6-6-6-6-6-6-|-6----6-|-8-8-8-8-8-8-8-8-|-8----8-| x2
A|-4-4-4-4-4-4-4-4-|-6----6-|-8-8-8-8-8-8-8-8-|-8----8-|
E|-----------------|-4----4-|-6-6-6-6-6-6-6-6-|-6----6-|

Guitar 2
e|------------|------------|------------|
B|------------|------------|------------|
G|-10\\\\-6---|-10\\\\-----|-10---------|
D|------------|--------6---|--------8---| x2
A|-8\\\\\-4---|-8\\\\\-----|-8----------|
E|------------|--------4---|--------6---|

Guitar 3
e|-----------|
B|-4b(5)b(6)-|
G|-----------|
D|-----------| x8
A|-----------|
E|-----------|

[Verse 2]
Guitar 1 (starts at "Feel my body swoon ...")
   PM-------------------------------------------|
e|--------------|--------|--------------|--------|
B|--------------|--------|--------------|--------|
G|-6--6-6-6-6-6-|--------|--------------|--------|
D|-6--6-6-6-6-6-|-6----6-|-8--8-8-8-8-8-|-8----8-|x2
A|-4--4-4-4-4-4-|-6----6-|-8--8-8-8-8-8-|-8----8-|
E|--------------|-4----4-|-6--6-6-6-6-6-|-6----6-|

[Chorus 1] 
Guitar 1 "At last ..."
   F#                  D#m
e|-2-------|-2-------|-6-------|-6-------|
B|-2-------|-2-------|-7-------|-7-------|
G|-3-------|-3-------|-8-------|-8-------|
D|-4-------|-4-------|-8-------|-8-------|
A|-4-------|-4-------|-6-------|-6-------|
E|-2-------|-2-------|---------|---------|

e|-2-------|-2-------|
B|-2-------|-2-------|
G|-3-------|-3-------|
D|-4-------|-4-------|
A|-4-------|-4-------|
E|-2-------|-2-------|

[Verse 3]
(Guitar 1, 2 and 3 together)
Guitar 1
   PM----------------------------------------------|
e|---------------|---------|---------------|--------|
B|---------------|---------|---------------|--------|
G|-6-6-6-6-6-6-6-|---------|---------------|--------|
D|-6-6-6-6-6-6-6-|-6-6-6-6-|-8-8-8-8-8-8-8-|-8----8-|x2
A|-4-4-4-4-4-4-4-|-6-6-6-6-|-8-8-8-8-8-8-8-|-8----8-|
E|---------------|-6-6-6-6-|-6-6-6-6-6-6-6-|-6----6-|

Guitar 2
e|------------|------------|------------|
B|------------|------------|------------|
G|-10\\\\-6---|-10\\\\-----|-10---------|
D|------------|--------6---|--------8---| x2
A|-8\\\\\-4---|-8\\\\\-----|-8----------|
E|------------|--------4---|--------6---|

Guitar 3
e|-----------|-----------|-----------|-----------|
B|-----------|-----------|-4b(5)b(6)-|-4b(5)b(6)-|
G|-----------|-----------|-----------|-----------|
D|-----------|-----------|-----------|-----------| x2
A|-----------|-----------|-----------|-----------|
E------------|-----------|-----------|-----------|

[Bridge]
Guitar 1 (using an acoustic simulator) "Nowhere to go ..."
   D#m
e|---------------------------------|
B|---------------------------------|
G|-8-8-8-8--8--8-8-8-8--8--8-8-8-8-|
D|-8-8-8-8--8--8-8-8-8--8--8-8-8-8-|
A|-6-6-6-6--6--6-6-6-6--6--6-6-6-6-|
E|---------------------------------|

   B
e|---------------------------------|
B|---------------------------------|
G|---------------------------------|
D|-4-4-4-4--4--4-4-4-4--4--4-4-4-4-|
A|-4-4-4-4--4--4-4-4-4--4--4-4-4-4-|
E|-2-2-2-2--2--2-2-2-2--2--2-2-2-2-|

   F#
e|---------------------------------|
B|---------------------------------|
G|---------------------------------|
D|-4-4-4-4--4--4-4-4-4--4--4-4-4-4-|
A|-4-4-4-4--4--4-4-4-4--4--4-4-4-4-|
E|-2-2-2-2--2--2-2-2-2--2--2-2-2-2-|

   C#
e|---------------------------------|
B|---------------------------------|
G|-6-6-6-6--6--6-6-6-6--6--6-6-6-6-|
D|-6-6-6-6--6--6-6-6-6--6--6-6-6-6-|
A|-4-4-4-4--4--4-4-4-4--4--4-4-4-4-|
E|---------------------------------|

   B
e|---------------------------------|
B|---------------------------------|
G|---------------------------------|
D|-4-4-4-4--4--4-4-4-4--4--4-4-4-4-|
A|-4-4-4-4--4--4-4-4-4--4--4-4-4-4-|
E|-2-2-2-2--2--2-2-2-2--2--2-2-2-2-|

   D#m
e|---------------------------------|
B|---------------------------------|
G|-8-8-8-8--8--8-8-8-8--8--8-8-8-8-|
D|-8-8-8-8--8--8-8-8-8--8--8-8-8-8-|
A|-6-6-6-6--6--6-6-6-6--6--6-6-6-6-|
E|---------------------------------|

   C#             G#             A#m
e|--------------|--------------|-------------|----------|
B|--------------|--------------|-------------|----------|
G|-6-6-6-6--6-6-|--------------|-------------|----------|
D|-6-6-6-6--6-6-|-6-6-6-6--6-6-|-8-8-8-8-8---|-8-8-8-8--|
A|-4-4-4-4--4-4-|-6-6-6-6--6-6-|-8-8-8-8-8---|-8-8-8-8--|
E|--------------|-4-4-4-4--4-4-|-6-6-6-6-6---|-6-6-6-6--|

[Chorus 2] 
Guitar 1 At last ...
e|-2-------|-2-------|-6-------|-6-------|
B|-2-------|-2-------|-7-------|-7-------|
G|-3-------|-3-------|-8-------|-8-------|
D|-4-------|-4-------|-8-------|-8-------|
A|-4-------|-4-------|-6-------|-6-------|
E|-2-------|-2-------|---------|---------|

e|-2-------|-2-------|
B|-2-------|-2-------|
G|-3-------|-3-------|
D|-4-------|-4-------|
A|-4-------|-4-------|
E|-2-------|-2-------|

[Verse 4]
Guitar 1
   PM-------------------------------------------|
e|--------------|--------|--------------|--------|
B|--------------|--------|--------------|--------|
G|-6--6-6-6-6-6-|--------|--------------|--------|
D|-6--6-6-6-6-6-|-6----6-|-8--8-8-8-8-8-|-8----8-|x2
A|-4--4-4-4-4-4-|-6----6-|-8--8-8-8-8-8-|-8----8-|
E|--------------|-4----4-|-6--6-6-6-6-6-|-6----6-|

Guitar 2
e|------------|------------|------------|
B|------------|------------|------------|
G|-10\\\\-6---|-10\\\\-----|-10---------|
D|------------|--------6---|--------8---| x2
A|-8\\\\\-4---|-8\\\\\-----|-8----------|
E|------------|--------4---|--------6---|

Guitar 3
e|-----------|-----------|-----------|-----------|
B|-----------|-----------|-4b(5)b(6)-|-4b(5)b(6)-|
G|-----------|-----------|-----------|-----------|
D|-----------|-----------|-----------|-----------| x2
A|-----------|-----------|-----------|-----------|
E------------|-----------|-----------|-----------|

[Outro]
Guitar 1
Guitar and vocals only 
e|----------|----------|----------|
B|----------|----------|----------|
G|----------|----------|----------|
D|-10---6---|-10-------|-10-------| x2
A|-8----4---|-8----6---|-8----8---|
E|----------|------4---|------6---|

            
Submit corrections


        Circadian Rhythm Last Dance lessons Hard to play? Try these video lessons and learn fast Circadian Rhythm Last Dance lessons
        
↑ Back to top | Tablatures and chords for acoustic guitar and electric guitar, ukulele, drums are parodies/interpretations of the original songs. You may use it for private study, scholarship, research or language learning purposes only