Home » S » Silversun Pickups »

Silversun Pickups - Catch And Release Bass

Artists:  A B C D E F G H I J K L M N O P Q R S T U V W X Y Z # 

Catch And Release Bass

(ver. 1) Click to play this song!
Silversun Pickups
Verse (come in at 0:33 "i hope you' ll take it....")
G|----------------|
D|-----------0----|
A|---2h3----------| just play once
E|0------0h2---0~-|

Come in again at 0:42 with the same.

Let the guitar do 1 after that then

Chorus
G|----------------------------------------|
D|----------------------------------------|
A|23-3--3---5-5-3-3--3---5-5-3-3--3---5-5-|  x1
E|-------3-3----------3-3----------3-3----|

Verse 
G|-----------------|
D|-----------0h2-2-|
A|---2h3-----------|  x1
E|0------0h2-------|

G|--------------4-4-4-4-|
D|-----------0h2-2-2-2--| x1 (don't no if the end is right but it sounds ok,
A|---2h3----------------|   you can always just play d|2> or just let it 
E|0------0h2------------|   ring)

G|-----------------|
D|-----------0h2-2-|
A|---2h3-----------|  x12
E|0------0h2-------|

Chorus
G|----------------------------------------|
D|----------------------------------------|
A|23-3--3---5-5-3-3--3---5-5-3-3--3---5-5-|  x1
E|-------3-3----------3-3----------3-3----|

G|-----------------|
D|-----------0h2-2-|
A|---2h3-----------|  x1
E|0------0h2-------|

G|----------------------------------------|
D|----------------------------------------|
A|23-3--3---5-5-3-3--3---5-5-3-3--3---5-5-|  x1
E|-------3-3----------3-3----------3-3----|

After Chorus
G|-----------------|
D|-----------0h2-2-|
A|---2h3-----------|  x1
E|0------0h2-------|

G|--------------4-4-4-4-|
D|-----------0h2-2-2-2--|  x1 (same as before for the end)
A|---2h3----------------|    
E|0------0h2------------| 

Bridge (and who knows..)
G|-----------------------------------------------------|
D|-----------------------------------------------------|
A|-------------3--33-33-33-3-------------2--22-25-55-5-|  x1
E|0--00-00-00-0-------------3--33-33-33-3--------------|

G|-----------------------------------------------------|
D|-----------------------------------------------------|
A|3--33-33-33-3-------------0--00-00-00-02--22-25-55-5-|  x3
E|-------------0--00-00-00-0---------------------------|

Chorus
G|---------------------------------------|
D|---------------------------------------|
A|3-3--3---5-5-3-3--3---5-5-3-3--3---5-5-|  x1
E|------3-3----------3-3----------3-3----|

G|-----------------|
D|-----------0h2-2-|
A|---2h3-----------|  x1
E|0------0h2-------|

G|----------------------------------------|
D|----------------------------------------|
A|23-3--3---5-5-3-3--3---5-5-3-3--3---5-5-|  x1
E|-------3-3----------3-3----------3-3----|

G|-----------------|
D|-----------0h2-2-|
A|---2h3-----------|  x3
E|0------0h2-------|

G|-------------|
D|-----------0-|
A|---2h3-------|  x1
E|0------0h2---|

Finish

Great great chilled out song by the awesome silversun pickups.
New album is so friggin good. Hope this tab measures up, pretty sure it almost 
spot on. Please rate and comment. thanks.
            
Submit corrections

↑ Back to top | Tablatures and chords for acoustic guitar and electric guitar, ukulele, drums are parodies/interpretations of the original songs. You may use it for private study, scholarship, research or language learning purposes only