» » »

Silversun Pickups - Cannibal Tabs

Artists:  A B C D E F G H I J K L M N O P Q R S T U V W X Y Z # 

Cannibal Tabs

(ver. 1) Click to play this song!
Silversun Pickups
 Rating:
4/5 (4 votes)

 Cannibal lessons Tabs too difficult? Try these video lessons and learn fast
 
                Half-Step Down Tuning

Intro
eb----------------|
bb---7----------7-|
gb----------------| repeat
db-44----44--44---|
ab----------------|
eb----------------|

(Bottom eb notes might just be the bass by itself but it sounds good.  Bottom eb2 on 
slide down is optional.)

eb------------------------------------------------|
bb------------------------------------------------|
gb------------------------------------------------|
db------------------------------------------------|
ab-4/-------4/---------4/---------4/---------4/---|
eb----0-2-2(2/-)-0-2-2(2/-)-0-2-2(2/-)-0-2-2(2/-)-|

Verse
Part 1
eb------------------------------------|
bb------------------------------------|
gb------------------------------------|
db------------------------------------|
ab-4-4-44-4-4-44-4-4-44-4-4-44-4-4-44-|
eb-0-2-22-0-2-22-0-2-22-0-2-22-0-2-22-|

eb------------------------------------------------|
bb------------------------------------------------|
gb------------------------------------------------| repeat
db------------------------------------------------|   as
ab-4/-------4/---------4/---------4/---------4/---| needed
eb----0-2-2(2/-)-0-2-2(2/-)-0-2-2(2/-)-0-2-2(2/-)-|

Part 2
eb------------------------------------------------------------------------------|
bb------------------------------------------------------------------------------|
gb------------------------------------------------------------------------------|
db---------------------------------------------------------9-9-99-9-9-99-9-9-99-|
ab-4-4-44-4-4-44-4-4-44-4-4-44-7-7-77-7-7-77-7-7-77-7-7-77-7-7-77-7-7-77-7-7-77-|
eb-0-2-22-0-2-22-0-2-22-0-2-22-5-5-55-5-5-55-5-5-55-5-5-55----------------------|

eb------------------------------------------------|
bb------------------------------------------------|
gb------------------------------------------------| repeat
db------------------------------------------------|   as
ab-4/-------4/---------4/---------4/---------4/---| needed
eb----0-2-2(2/-)-0-2-2(2/-)-0-2-2(2/-)-0-2-2(2/-)-|

eb--------------------------------------------------|
bb--------------------------------------------------|
gb--------------------------------------------------|
db-----------------------------9-9-99-9-9-99-9-9-99-|
ab-7-7-77-7-7-77-7-7-77-7-7-77-7-7-77-7-7-77-7-7-77-|
eb-5-5-55-5-5-55-5-5-55-5-5-55----------------------|

Guitar
eb----------------------------12-12-16~----14~--14~---|
bb-------------9-9-9-12-12-12-------------------------|
gb-11~---9-9-9----------------------------------------|
db----------------------------------------------------|
ab----------------------------------------------------|
eb----------------------------------------------------|

Chorus
eb-------------------------------------|
bb-------------------------------------|
gb-------------9-9-9-7-7-7-7-7-7-7-7-7-| 3x
db-4-4-4-7-7-7-9-9-9-7-7-7-7-7-7-7-7-7-|
ab-4-4-4-7-7-7-7-7-7-5-5-5-5-5-5-5-5-5-|
eb-2-2-2-5-5-5-7-7-7-5-5-5-5-5-5-5-5-5-|

eb-----------------------------------------------|
bb-----------------------------------------------|
gb-------------9-9-9-7-7-7-7-7-7-7-7-7-----------|
db-4-4-4-7-7-7-9-9-9-7-7-7-7-7-7-7-7-7-7/9-9-7-7-|
ab-4-4-4-7-7-7-7-7-7-5-5-5-5-5-5-5-5-5-7/9-9-7-7-|
eb-2-2-2-5-5-5-7-7-7-5-5-5-5-5-5-5-5-5-5/7-7-5-5-|

Bridge (Figure out rhythm)
eb------------------99999999-1212121212121212-99999999--------------------99999999-|
bb-1010101010101010------------------------------------101010101010101010----------|
gb---------------------------------------------------------------------------------|
db---------------------------------------------------------------------------------|
ab---------------------------------------------------------------------------------|
eb---------------------------------------------------------------------------------|
            
Submit corrections


        Cannibal lessons Hard to play? Try these video lessons and learn fast Cannibal lessons
        
↑ Back to top | Tablatures and chords for acoustic guitar and electric guitar, ukulele, drums are parodies/interpretations of the original songs. You may use it for private study, scholarship, research or language learning purposes only