» » »

Silversun Pickups - Busy Bees Tabs

Artists:  A B C D E F G H I J K L M N O P Q R S T U V W X Y Z # 

Busy Bees Tabs

(ver. 1) Click to play this song!
Silversun Pickups
 Rating:
4/5 (4 votes)

 Busy Bees lessons Tabs too difficult? Try these video lessons and learn fast
 
                (Intro)
Busy Bees - Silversun Pickups
(Neck of the Woods)

This is just a work in progress.
If you have any bits to add or corrections please comment and I'll add them in.
Thanks to:
MarbleCakeRamem - for spotting some typos and suggesting additions.

The first version of this tab is written for two guitars,
scroll down for the version tabbed for one guitar.
Guitar II could be played on Bass.

*---------------------*
| TWO GUITARS VERSION |
*---------------------*

******************************
* GUITAR I  TUNING: STANDARD *
* GUITAR II TUNING: DROP D   *
******************************


INTRO
(0:00 - 1:00)
GUITAR I                     x3
e|-----------------------------|-------------------------------------------|
b|-----------------------------|-------------------------------------------|
G|-----------------------------|-------------------------------------------|
D|--3-----------4-----3-----3--|-3--1-----3--1-----3--1-----3--1-----3--1--| x4
A|-----1--4--------4-----1-----|-------------------------------------------|
E|-----------2-----------------|-------------------------------------------|

GUITAR II                    x3
e|-----------------------------|-------------------------------------------|
b|-----------------------------|-------------------------------------------|
G|-----------------------------|-------------------------------------------|
D|-----------------------------|-------------------------------------------| x4
A|-----------------------------|-------------------------------------------|
D|-----------------------------|-------1--------1--------1--------1--------|

Vocals -> 3rd Time (0:30)
Bass -> 4th Time (0:45)


(1:00-1:15)
GUITAR I
e|--------------------------------------------------------------------------|
b|--------------------------------------------------------------------------|
G|--------------------------------------------------------------------------|
D|-----3--1-----3--1-----3--1-----3--1-----3--1-----3--1-----3--1-----3--1--| x2
A|--------------------------------------------------------------------------|
E|--------------------------------------------------------------------------|

GUITAR II
e|--------------------------------------------------------------------------|
b|--------------------------------------------------------------------------|
G|--------------------------------------------------------------------------|
D|--------------------------------------------------------------------------| x2
A|--------------------------------------------------------------------------|
D|--4--------4--------4--------4--------6--------6--------1--------1--------|


(1:15-1:22)
GUITAR I
e|-----------------------------|-----------------------------|
b|-----------------------------|-----------------------------|
G|-----------------------------|-----------------------------|
D|--3-----------4-----3--------|--3-----------4-----3-----3--|
A|-----1--4--------4-----------|-----1--4--------4-----1-----|
E|-----------2-----------------|-----------2-----------------|


(1:22-1:52)
GUITAR I                     x3
e|-----------------------------|-------------------------------------------|
b|-----------------------------|-------------------------------------------|
G|-----------------------------|-------------------------------------------|
D|--3-----------4-----3-----3--|-3--1-----3--1-----3--1-----3--1-----3--1--| x2
A|-----1--4--------4-----1-----|-------------------------------------------|
E|-----------2-----------------|-------------------------------------------|

GUITAR II                    x3
e|-----------------------------|-------------------------------------------|
b|-----------------------------|-------------------------------------------|
G|-----------------------------|-------------------------------------------|
D|-----------------------------|-------------------------------------------| x2
A|-----------------------------|-------------------------------------------|
D|-----------------------------|-------1--------1--------1--------1--------|


(1:52-2:11)
GUITAR I                                                                 x2         x4
e|-------------------------------------------------------------------------|----------|
b|-------------------------------------------------------------------------|----------|
G|-------------------------------------------------------------------------|----------|
D|-----3--1-----3--1-----3--1-----3--1-----3--1-----3--1-----3--1-----3--1-|----3--1--|
A|-------------------------------------------------------------------------|----------|
E|-------------------------------------------------------------------------|----------|

GUITAR II                                                                x2         x4
e|-------------------------------------------------------------------------|----------|
b|-------------------------------------------------------------------------|----------|
G|-------------------------------------------------------------------------|----------|
D|-------------------------------------------------------------------------|----------|
A|-------------------------------------------------------------------------|----------|
D|--4--------4--------4--------4--------6--------6--------1--------1-------|-1--------|


(2:11-2:41)
GUITAR I
e|------------------------------------------------------------------------|
b|------------------------------------------------------------------------|
G|------------------------------------------------------------------------|
D|--8--------8--------8--------8--------6--------6--------6--------6------| x4
A|--8--------8--------8--------8--------6--------6--------6--------6------|
D|--8--------8--------8--------8--------6--------6--------6--------6------|

GUITAR II
e|------------------------------------------------------------------------|
b|------------------------------------------------------------------------|
G|------------------------------------------------------------------------|
D|--8-----------------------------------6----------------------4-/-6------| x4
A|--8-----------------------------------6----------------------4-/-6------|
D|--8-----------------------------------6----------------------------[6]--|
                                                  2nd & 4th time only ^

(2:41-2:48)

(2:48-
e|-----------------------------------|-------------------------------------------|
b|-----------------------------------|-------------------------------------------|
G|--1-----------3-----------------3--|-------------------------------------------|
D|-----1--3--------1--3--------3-----|-4--3--1----4--3--1----4--3--1----4--3--1--| x2
A|-----------1-----------1--4--------|-------------------------------------------|
D|-----------------------------------|-------------------------------------------|







*------------------------*
| SINGLE GUITAR ADAPTION |
*------------------------*


******************
* TUNING: DROP D *
******************

INTRO
(0:00 - 1:00)                x3
e|-----------------------------|-------------------------------------------|
b|-----------------------------|-------------------------------------------|
G|-----------------------------|-------------------------------------------|
D|--3-----------4-----3-----3--|-3--1-----3--1-----3--1-----3--1-----3--1--| x4
A|-----1--4--------4-----1-----|-------------------------------------------|
D|-----------4-----------------|-------1--------1--------1--------1--------|

Vocals -> 3rd Time (0:30)
Bass -> 4th Time (0:45)


(1:00-1:15)
e|--------------------------------------------------------------------------|
b|--------------------------------------------------------------------------|
G|--------------------------------------------------------------------------|
D|-----3--1-----3--1-----3--1-----3--1-----------------------3--1-----3--1--| x2
A|-----------------------------------------8--6-----8--6--------------------|
D|--4--------4--------4--------4--------6--------6--------1--------1--------|


(1:15-1:22)
e|-----------------------------|-----------------------------|
b|-----------------------------|-----------------------------|
G|-----------------------------|-----------------------------|
D|--3-----------4-----3--------|--3-----------4-----3-----3--|
A|-----1--4--------4-----------|-----1--4--------4-----1-----|
D|-----------4-----------------|-----------4-----------------|


(1:22-1:52)                  x3
e|-----------------------------|-------------------------------------------|
b|-----------------------------|-------------------------------------------|
G|-----------------------------|-------------------------------------------|
D|--3-----------4-----3-----3--|-3--1-----3--1-----3--1-----3--1-----3--1--| x2
A|-----1--4--------4-----1-----|-------------------------------------------|
D|-----------4-----------------|-------1--------1--------1--------1--------|


(1:52-2:11)                                                              x2         x4
e|-------------------------------------------------------------------------|----------|
b|-------------------------------------------------------------------------|----------|
G|-------------------------------------------------------------------------|----------|
D|-----3--1-----3--1-----3--1-----3--1-----------------------3--1-----3--1-|----3--1--|
A|-----------------------------------------8--6-----8--6-------------------|----------|
D|--4--------4--------4--------4--------6--------6--------1--------1-------|-1--------|


(2:11-2:41)
e|------------------------------------------------------------------------|
b|------------------------------------------------------------------------|
G|------------------------------------------------------------------------|
D|--8--------8--------8--------8--------6--------6--------6----4-/-6------| x4
A|--8--------8--------8--------8--------6--------6--------6----4-/-6------|
D|--8--------8--------8--------8--------6--------6--------6----------[6]--|
                                                  2nd & 4th time only ^

(2:41-2:48)

(2:48-3:18)
e|-----------------------------------|-------------------------------------------|
b|-----------------------------------|-------------------------------------------|
G|--1-----------3-----------------3--|-------------------------------------------|
D|-----1--3--------1--3--------3-----|-4--3--1----4--3--1----4--3--1----4--3--1--| x4
A|-----------1-----------1--4--------|-------------------------------------------|
D|-----------------------------------|-------------------------------------------|
I am unsure about this bit. I think I need to sleep on it...


(3:18-3:52)                                                              x4         x4
e|-------------------------------------------------------------------------|----------|
b|-------------------------------------------------------------------------|----------|
G|-------------------------------------------------------------------------|----------|
D|-----3--1-----3--1-----3--1-----3--1-----------------------3--1-----3--1-|----3--1--|
A|-----------------------------------------8--6-----8--6-------------------|----------|
D|--4--------4--------4--------4--------6--------6--------1--------1-------|-1--------|


(3:52-4:22)
e|------------------------------------------------------------------------|
b|------------------------------------------------------------------------|
G|------------------------------------------------------------------------|
D|--8--------8--------8--------8--------6--------6--------6----4-/-6------| x4
A|--8--------8--------8--------8--------6--------6--------6----4-/-6------|
D|--8--------8--------8--------8--------6--------6--------6----------[6]--|
                                                  2nd & 4th time only ^


(4:22-4:30)

(4:30-5:00)
e|------------------------------------------------------------------------|
b|------------------------------------------------------------------------|
G|------------------------------------------------------------------------|
D|--8--------8--------8--------8--------6--------6--------6----4-/-6------| x4
A|--8--------8--------8--------8--------6--------6--------6----4-/-6------|
D|--8--------8--------8--------8--------6--------6--------6----------[6]--|
                                                  2nd & 4th time only ^

(5:00-5:15)

(5:15-fade)                  x3
e|-----------------------------|-------------------------------------------|
b|-----------------------------|-------------------------------------------|
G|-----------------------------|-------------------------------------------|
D|--3-----------4-----3-----3--|-3--1-----3--1-----3--1-----3--1-----3--1--|
A|-----1--4--------4-----1-----|-------------------------------------------|
D|-----------4-----------------|-------1--------1--------1--------1--------|
            
Submit corrections


        Busy Bees lessons Hard to play? Try these video lessons and learn fast Busy Bees lessons
        
↑ Back to top | Tablatures and chords for acoustic guitar and electric guitar, ukulele, drums are parodies/interpretations of the original songs. You may use it for private study, scholarship, research or language learning purposes only