Home » S » Silent Sanctuary »

Silent Sanctuary - Pasensya Ka Na Tabs

Artists:  A B C D E F G H I J K L M N O P Q R S T U V W X Y Z # 

Pasensya Ka Na Tabs

(ver. 2) Click to play this song!
Silent Sanctuary
[Intro]
e|-----------------|------------------| 2x
B|------3-----3----|------3------3----|
G|-0h2--2--x--2--x-|-0h2--2--x---2--x-|
D|-----------------|------------------|
A|-----------------|-3-------x---3--x-|
E|-3-------x--3--x-|------------------|
 
[Verse 1]
 
e|------------------|---------------------|--------------------------|---------------------------|
B|-------------3--0-|----0----------------|---------------------0----|---------------------------|
G|-------0--0--0----|-------2--2-----x----|-------0h2--2--2--2--2--0-|-------0--x--0-------------|
D|----0-----0-------|-------------2-----0-|----0-------0-----0-------|----2-----------0h2-----0--|
A|------------------|-3-----x--3--3--x----|--------------------------|-3--------x--3-------x-----|
E|-3-----x--3--x----|---------------------|-3-----x----3--------x----|---------------------------|
 
e|---------------------|---------------------|--------------------------|------------------------|
B|----------------3--0-|----0----------------|---------------------0----|------------------------|
G|-------0--0--0--0----|-------2--2-----x----|-------0h2--2--2--2--2--0-|-------0--x--0-----0--0-|
D|----0--------0-------|-------------2-----0-|----0-------0-----0-------|----2-----------2-------|
A|---------------------|-3-----x--3--3--x----|--------------------------|-3--------x--3-----x----|
E|-3-----x-----3--x----|---------------------|-3-----x----3--------x----|------------------------| x3
 
[Refrain]
 
e|------------------|---------------------|---------------|--------------------|
B|-3--x--0--------0-|---------------------|-3--x--0-------|-0--1--1h3--1--0----|
G|-0-----0--2--2----|-------0--x--0-----0-|-0-----0--2----|-------0----------2-|
D|------------------|----2-----------2----|---------------|--------------------|
A|-2--x--2-----x----|-3--------x--3--x----|-2--x--2-----x-|-3--x--3-------x----|
E|------------------|---------------------|---------------|--------------------|
 
e|----2h3--3--3-|-------0----------|----------------2--2h3--2----|
B|----3----3--3-|-------3--3--3----|-0--1--0--------3-------3--x-|
G|----2---------|-0--2-----2--x--0-|----0--x--2------------------|
D|-0--x----0--x-|------------------|-0-----x-----0--x-------0--x-|
A|--------------|-3-----x--3--x----|-----------------------------|
E|--------------|------------------|-----------------------------|
 
[Chorus]
 
e|--------------------------|--------------------------|----------------------------|-------2-|
B|----------3/5--3-----3----|-------3/5--3-----0-----0-|------0--------0h1--3--1--0-|-------3-|
G|-0--0--0-------------0----|-0--0-------------0--x--0-|-0h2--------2--x----0--0--0-|-2-----2-|
D|---------------------x----|--------------------------|----------------------------|----0----|
A|--------------------------|-------x-------2-----x--2-|-x-------3-----x----3-----x-|---------|
E|----------x-------3--x--3-|--------------------------|----------------------------|---------|
 
e|--------------------------|--------------------------|----------------------------|-------2-|
B|----------3/5--3-----3----|-------3/5--3-----0-----0-|------0--------0h1--3--1--0-|-------3-|
G|-0--0--0-------------0----|-0--0-------------0--x--0-|-0h2--------2--x----0--0--0-|-2-----2-|
D|---------------------x----|--------------------------|----------------------------|----0----|
A|--------------------------|-------x-------2-----x--2-|-x-------3-----x----3-----x-|---------|
E|----------x-------3--x--3-|--------------------------|----------------------------|---------| x2
 
[Verse 2]
 
e|------------------|---------------------|--------------------------|---------------------------|
B|-------------3--0-|----0----------------|---------------------0----|---------------------------|
G|-------0--0--0----|-------2--2-----x----|-------0h2--2--2--2--2--0-|-------0--x--0-------------|
D|----0-----0-------|-------------2-----0-|----0-------0-----0-------|----2-----------0h2-----0--|
A|------------------|-3-----x--3--3--x----|--------------------------|-3--------x--3-------x-----|
E|-3-----x--3--x----|---------------------|-3-----x----3--------x----|---------------------------|
 
e|---------------------|---------------------|--------------------------|------------------------|
B|----------------3--0-|----0----------------|---------------------0----|------------------------|
G|-------0--0--0--0----|-------2--2-----x----|-------0h2--2--2--2--2--0-|-------0--x--0-----0--0-|
D|----0--------0-------|-------------2-----0-|----0-------0-----0-------|----2-----------2-------|
A|---------------------|-3-----x--3--3--x----|--------------------------|-3--------x--3-----x----|
E|-3-----x-----3--x----|---------------------|-3-----x----3--------x----|------------------------| x4
 
[Refrain]
 
e|------------------|---------------------|---------------|--------------------|
B|-3--x--0--------0-|---------------------|-3--x--0-------|-0--1--1h3--1--0----|
G|-0-----0--2--2----|-------0--x--0-----0-|-0-----0--2----|-------0----------2-|
D|------------------|----2-----------2----|---------------|--------------------|
A|-2--x--2-----x----|-3--------x--3--x----|-2--x--2-----x-|-3--x--3-------x----|
E|------------------|---------------------|---------------|--------------------|
 
e|----2h3--3--3-|-------0----------|----------------2--2h3--2----|
B|----3----3--3-|-------3--3--3----|-0--1--0--------3-------3--x-|
G|----2---------|-0--2-----2--x--0-|----0--x--2------------------|
D|-0--x----0--x-|------------------|-0-----x-----0--x-------0--x-|
A|--------------|-3-----x--3--x----|-----------------------------|
E|--------------|------------------|-----------------------------|
 
[Chorus]
 
e|--------------------------|--------------------------|----------------------------|-------2-|
B|----------3/5--3-----3----|-------3/5--3-----0-----0-|------0--------0h1--3--1--0-|-------3-|
G|-0--0--0-------------0----|-0--0-------------0--x--0-|-0h2--------2--x----0--0--0-|-2-----2-|
D|---------------------x----|--------------------------|----------------------------|----0----|
A|--------------------------|-------x-------2-----x--2-|-x-------3-----x----3-----x-|---------|
E|----------x-------3--x--3-|--------------------------|----------------------------|---------|
 
e|--------------------------|--------------------------|----------------------------|-------2-|
B|----------3/5--3-----3----|-------3/5--3-----0-----0-|------0--------0h1--3--1--0-|-------3-|
G|-0--0--0-------------0----|-0--0-------------0--x--0-|-0h2--------2--x----0--0--0-|-2-----2-|
D|---------------------x----|--------------------------|----------------------------|----0----|
A|--------------------------|-------x-------2-----x--2-|-x-------3-----x----3-----x-|---------|
E|----------x-------3--x--3-|--------------------------|----------------------------|---------| x2
 
[Outro]
 
e|-----------------|-------------------|-3--3--3----|-2--2-|
B|------3-----3----|-------0-------0h3-|-3--3--3--3-|-3--3-|
G|-0h2--2--x--2--x-|-------0--0h2------|------------|-2--x-|
D|-----------------|-------------------|------------|-0--x-|
A|-----------------|-0--2--x--2----x---|-3--x--3--x-|------|
E|-3-------x--3--x-|-------------------|------------|------|
            
Submit corrections

↑ Back to top | Tablatures and chords for acoustic guitar and electric guitar, ukulele, drums are parodies/interpretations of the original songs. You may use it for private study, scholarship, research or language learning purposes only