» » »

Silent Sanctuary - Rebound Tabs

Artists:  A B C D E F G H I J K L M N O P Q R S T U V W X Y Z # 

Rebound Tabs

(ver. 1) Click to play this song!
Silent Sanctuary
 Rating:
4/5 (8 votes)


 Rebound lessons Tabs too difficult? Try these video lessons and learn fast
 
                Album:Mga Kwentong Pag-Ibig/Fuchsiang Pag-Ibig
              09229015724(Sun Cell)

For your questions or suggestions,just post in friendster comment,PM or mail me.

Gtr.Legends:
/\ - slide
~  - let it ring
h  - hammer-on
p  - pull-off

Gtr.Tuning:Standard(Normal)

Intro:
Gtr.1
e|------0000-------0000-------0000-0000---      -----------|
B|-0000-0000--0000-0000--0000-0000-2222--- 2x   -0~---0~---|
G|-2222-1111--2222-1111--2222-1111-2222--- Then -2~---2~---|
D|-2222-2222--2222-2222--2222-2222-0000---      -2~---2~---|
A|-0000-0000--0000-0000--0000-0000--------      -0~---0~---|
E|----------------------------------------      -----------|

Gtr.2
Bass Converted to Guitar:
e|---------------------------      -------------------------------------|
B|---------------------------      -------------------------------------|
G|---------------------------      -------------------------------------|
D|-6h7-6---9-7-6------------- 3x   -6h7-6---9-9/11-9-7-9-7p6-7p6--------|
A|-------7--------9-7-7h9---- Then -------7-----------------------7h9---|
E|---------------------------      -------------------------------------|

Bass:
G|-13h14-13----16-14-13--------------      -13h14-13----16-16/18-16p14-13-14p13---------|
D|----------14----------16-14-14h16-- 3x   ----------14-------------------------16-18---|
A|----------------------------------- Then ---------------------------------------------|
E|-----------------------------------      ---------------------------------------------|

Verse 1:O kay bilis namang...
e|-------------------------------------|
B|-0~---0~---00000---0~---0~---00000---|
G|-2~---2~---22222---2~---2~---22222---|
D|-2~---2~---22222---2~---2~---22222---|
A|-0~---0~---00000---0~---0~---00000---|
E|-------------------------------------|

Pre-Chorus:Para bang walng nangyari...
e|----------------------------|
B|----------------------------|
G|-4444-6666-4444-7777-9999---|
D|-4444-6666-4444-7777-9999---|
A|-2222-4444-2222-5555-7777---|
E|----------------------------|

Chorus:Sana hindi na lang...
e|----------------0000---|
B|-0000-----------3333---|
G|-2222-1111-2222-2222---| 4x
D|-2222-2222-4444-0000---|
A|-0000-2222-4444--------|
E|------0000-2222--------|

Pre-Verse 2:
Gtr.1
e|------0000-------0000-------0000--------|
B|-0000-0000--0000-0000--0000-0000-2222---|
G|-2222-2222--2222-2222--2222-2222-2222---|
D|-2222-------2222-------2222------0000---|
A|-0000-------0000-------0000-------------|
E|----------------------------------------|

Gtr.2:Violin Coverted to Guitar:
e|------------------------|
B|-9h10-9---12-10-9-7-5---|
G|--------9---------------| 4x
D|------------------------|
A|------------------------|
E|------------------------|


Verse 2:Nakakainis talaga...
Play Verse 1

Pre-Chorus 2:Dahil iniwan mo kong...
Play Pre-Chorus 1

Repeat Chorus:

Bridge prt.1(Violin and Cello Solo):
Gtr.1:
e|-------------------------------------------------------------|
B|-------------------------------------------------------------|
G|----------------------------------------------44444-7~--9~---|
D|-4444--6-7777---4444--6-2222---4444--6-7777---44444-7~--9~---|
A|-4444--6-7777---4444--6-2222---4444--6-7777---22222-5~--7~---|
E|-2222--4-5555---2222--4-0000---2222--4-5555------------------|

Gtr.2:Violin Converted to Guitar:
e|------------------------------------------------------10101010101010101010--13~-12~---|
B|-7777-9-10101010---77777-9-555555---77777-9-10101010----------------------------------|
G|--------------------------------------------------------------------------------------|
D|--------------------------------------------------------------------------------------|
A|--------------------------------------------------------------------------------------|
E|--------------------------------------------------------------------------------------|

Bridge prt.2(Bass Solo):
e|-000000000000000000000000---|
B|-000000000000000000000000---| Strum Down Stroke...
G|-222222222222222222222222---|
D|-000000000000000000000000---|
A|----------------------------|
E|----------------------------|

Bridge prt.3:Sana hindi na lang...
e|----7-5~------7-5~----7-5~-----7-5~--      ----------|
B|-------------------------------------      ----------|
G|------------------------------------- 2x   ----------| Chords:Like Chorus
D|------------------------------------- Then -777777---|
A|----------------------------5--------      -555555---|
E|-5---------4--------2----------------      ----------|

Outro Chorus:Sana hindi na lang...
Play Chorus

Last Chords:
e|-------------|
B|-------------|
G|--9-7---7~---|
D|--9-7-9-7~---|
A|--7-5-9-5~---|
E|------7------|


End...


Rebound Lyrics:

Verse 1:
O kay bilis namang
Magsawa ng puso mo
Ganyan ka ba talaga
Bigla na lang naglalaho

Pre-Chorus 1:
Para bang walang nangyari
Di' mo man lang sinabi...

Chorus: 
Sana hindi na lang pinilit pa
Wala ring patutunguhan
Kahit sabihin mo pang
Mahal kita
Nalulungkot, nayayamot, nagmumukmok
Hindi ko pa yata kaya pang
Labanan ang damdamin ko

Verse 2: 
Nakakainis talaga
Nag-mukha tuloy akong tanga
Pinaasa mo kasi
Puso ko ngayon tuloy lumuluha

Pre-Chorus 2:
Dahil iniwan mo 'kong mag-isa
Limang araw lang ay babay na

Repeat Chorus:

Bridge 1:
Rebound mo lang pala ako

Bridge 2:
Sana hindi na lang pinilit pa
Wala ring patutunguhan 
Kahit sabihin mo pang
Mahal kita...


Repeat Chorus x2
            
Submit corrections



        Rebound lessons Hard to play? Try these video lessons and learn fast Rebound lessons
        
↑ Back to top | Tablatures and chords for acoustic guitar and electric guitar, ukulele, drums are parodies/interpretations of the original songs. You may use it for private study, scholarship, research or language learning purposes only