Home » S » Silbermond »

Silbermond - Leichtes Gepack Bass

Artists:  A B C D E F G H I J K L M N O P Q R S T U V W X Y Z # 

Leichtes Gepack Bass

(ver. 1) Click to play this song!
Silbermond
Interlude
G|-----------------|-----------------|-----------------|-----------------|
D|-----------------|-----------------|-----------------|-----------------|
A|-3-3-3-3-3-3-5-5-|-6-6-6-6-6-6-----|-----------------|-----------------|
E|-----------------|-------------6-6-|-4-4-4-4-4-3-3-4-|-4-3-3/6-6-6-6-6-|

G|-----------------|-----------------|
D|-----------------|-----------------|
A|-3-3-3-3-3-3-5-5-|-6-6-6-6-6-6-6-6-|
E|-----------------|-----------------|

G|-------------------------|-------------------------|
D|-------------------------|-------------------------|
A|-11-11-11-11-11-10-10-11-|-11-10-10-13-13-13-13-13-|
E|-------------------------|-------------------------|

Verse 1
G|-----------------|-----------------|-----------------|-----------------|
D|-----------------|-----------------|-----------------|-----------------|
A|-15--------------|-13--------------|-11--------------|-10-----------13-|x2
E|-----------------|-----------------|-----------------|-----------------|

G|-------------------------|-------------------------|
D|-------------------------|-------------------------|
A|-15-15-15-15-15-15-15-15-|-13-13-13-13-13-13-13-13-|
E|-------------------------|-------------------------|

G|-------------------------|-------------------------|
D|-------------------------|-------------------------|
A|-11-11-11-11-11-11-11-11-|-10-10-10-10-10-10-10-10-|
E|-------------------------|-------------------------|

Pre Chorus
G|-----------------|-----------------|-----------------|-----------------------|
D|-----------------|--------10-------|-----------------|-----------------------|
A|-8---------------|-(8)---------8---|-11--------------|---13-13-13-13-13-13\--|
E|-----------------|-----------------|-----------------|-----------------------|

Chorus
G|-----------------|-----------------|-----------------|-----------------|
D|-----------------|-----------------|-----------------|-----------------|
A|-3-3-3-3-3-3-5-5-|-6-6-6-6-6-6-6-6-|-----------------|-----------------|
E|-----------------|-----------------|-4-4-4-4-4-4-4-4-|-6-6-6-6-6-6-6-6-|

G|-----------------|-----------------|-----------------|-----------------------|
D|-----------------|-----------------|-----------------|-----------------------|
A|-3-3-3-3-3-3-5-5-|-6-6-6-6-6-6-6/10|-11--------------|---13-13-13-13-13-13\--|
E|-----------------|-----------------|-----------------|-----------------------|

Interlude
G|-----------------|-----------------|-----------------|-----------------|
D|-----------------|-----------------|-----------------|-----------8-8\--|
A|-3-3-3-3-3-3-5-5-|-6-6-6-6-6-6-----|-----------------|-----------------|
E|-----------------|-------------6-6-|-4-4-4-4-4-3-3-4-|-4-3-3/6---------|

G|-----------------|-----------------|-----------------|-----------------|
D|-----------------|-----------------|-----------------|-----------------|
A|-3-3-3-3-3-3-5-5-|-6-6-6-6-6-6-----|-----------------|-----------------|
E|-----------------|-------------6-6-|-4-4-4-4-4-3-3-4-|-4-3-3/6---6-6-6-|

Verse 2
G|-----------------|-----------------|-----------------|-----------------|
D|-----------------|-----------------|-----------------|-----------------|
A|-15--------------|-13--------------|-11--------------|-10--------------|
E|-----------------|-----------------|-----------------|-----------------|

G|-----------------|-----------------|-----------------|-----------------|
D|-----------------|-----------------|-----------------|-----------------|
A|-15----------/17\|-13----------/15\|-11--------------|-10--------------|
E|-----------------|-----------------|-----------------|-----------------|

G|-------------------------|-------------------------|
D|-------------------------|-------------------------|
A|-15-15-15-15-15-15-15-15-|-17-17-17-17-17-17-17-17-|
E|-------------------------|-------------------------|

G|-------------------------|-------------------------|
D|-15-15-15-15-15-15-15-15-|-------------------------|
A|-------------------------|-15-15-15-15-13-13-13-13-|
E|-------------------------|-------------------------|

Pre Chorus
G|-----------------|--------10-------|-----------------|-----------------------|
D|-----------------|-10----------10--|-----------------|-----------------------|
A|-8---------------|-----------------|-11--------------|---13-13-13-13-13-13\--|
E|-----------------|-----------------|-----------------|-----------------------|

Chorus
G|-----------------|-----------------|-----------------|-----------------|
D|-----------------|-----------------|-----------------|-----------------|
A|-3-3-3-3-3-3-5-5-|-6-6-6-6-6-6-----|-----------------|-----------------|
E|-----------------|-------------6-6-|-4-4-4-4-4-4-4-4-|-6-6-6-6-6-6-6-6-|

G|-----------------|-----------------|-----------------|-----------------------|
D|-----------------|-----------------|-----------------|-----------------------|
A|-3-3-3-3-3-3-5-5-|-6-6-6-6-6-6-6/10|-11--------------|---13-13-13-13-13-13\--|
E|-----------------|-----------------|-----------------|-----------------------|

Interlude
G|-----------------|-----------------|-----------------|-----------------|
D|-----------------|-----------------|-----------------|-----------8-8\--|
A|-3-3-3-3-3-3-5-5-|-6-6-6-6-6-6-----|-----------------|-----------------|
E|-----------------|-------------6-6-|-4-4-4-4-4-3-3-4-|-4-3-3/6---------|

G|-----------------|-----------------|-----------------|-----------------|
D|-----------------|-----------------|-----------------|-----------------|
A|-3-3-3-3-3-3-5-5-|-6-6-6-6-6-6-----|-----------------|-----------------|
E|-----------------|-------------6-6-|-4-4-4-4-4-3-3-4-|-4-3-3/6---6-6-6-|

Bridge
G|-----------------|-12-------------------|-----------------|-12-------------------|
D|---------13------|----13---12---13-12---|---------13------|----13---12---13-12---|
A|-11-11-----------|----------------------|-11-11-----------|----------------------|
E|-----------------|----------------------|-----------------|----------------------|

G|-----------------|-12-------------------|-----------------|-12-------------------|
D|---------13------|----13---12---13-12---|---------13------|----13---12---13-12\--|
A|-11-11-----------|----------------------|-11-11-----------|----------------------|
E|-----------------|----------------------|-----------------|----------------------|

G|-----------------|
D|-6-----------\\\-|
A|-----------------|
E|-----------------|

Rest 1 chorus, then come in on "...mit leichtem Gepack" with:
                                                  ^
G|-----------------|
D|-----------------|
A|-10\\\-----------|
E|-----------------|

Short Drum fill

Final Chorus
G|-----------------|-----------------|-----------------|-----------------|
D|-----------------|-----------------|-----------------|-----------------|
A|-3-3-3-3-3-3-5-5-|-6-6-6-6-6-6-----|-----------------|-----------------|
E|-----------------|-------------6-6-|-4-4-4-4-4-3-3-4-|-4-3-3/6---6-6-6-|

G|-----------------|------------------|
D|-----------------|------------------|
A|-3-3-3-3-3-3-5-5-|-6-6-6-6-6-6-10-10|
E|-----------------|------------------|

G|-------------------------|-------------------------|
D|-------------------------|-------------------------|
A|-11-11-11-11-11-10-10-11-|-11-10-10-13-13-13-13-13-|
E|-------------------------|-------------------------|

G|-----------------|-----------------|
D|-----------------|-----------------|
A|-3-3-3-3-3-3-5-5-|-6-6-6-6-6-6-6-6-|
E|-----------------|-----------------|

G|--------------------|-------------------------|
D|--------------------|-------------------------|
A|-8-8-8-8-8-10-10-11-|-11-10-10-13-13-13-13-13-|
E|--------------------|-------------------------|

G|------------------|------------------|
D|-13p12------------|------------------|
A|------13-10--13\--|-6---6-6-6-6-6-10-|
E|------------------|------------------|

G|-------------------------|-----------------------|
D|-------------------------|-----------------------|
A|-11-11-11-11-11-10-10-11-|-11-10-10-13-13-13-13\-|
E|-------------------------|-----------------------|

End on
G|-----------------|
D|-----------------|
A|-----------------|
E|-8---------------|            
Submit corrections

↑ Back to top | Tablatures and chords for acoustic guitar and electric guitar, ukulele, drums are parodies/interpretations of the original songs. You may use it for private study, scholarship, research or language learning purposes only