» » »

Siddharta - Klinik Tabs

Artists:  A B C D E F G H I J K L M N O P Q R S T U V W X Y Z # 

Klinik Tabs

(ver. 2) Click to play this song!
Siddharta
 Rating:
4/5 (4 votes)

 Klinik lessons Tabs too difficult? Try these video lessons and learn fast
 
                 
SIDDHARTA - KLINIK

 Kitica:

 e|----------------------------------------------------------
 B|----------------------------------------------------------
 G|-----11-12-11-----11-12-11-------11-12-11--------9-11-9---
 D|---9------------9--------------9---------------7----------
 A|-9------------9-------------10---------------7------------
 E|----------------------------------------------------------

 Zadnjič:

 e|----------------------------------------------------------
 B|----------------------------------------------------------
 G|-----11-12-11-----11-12-11-------11-12-11----9...---------
 D|---9------------9--------------9--------------------------
 A|-9------------9-------------10----------------------------
 E|----------------------------------------------------------

 Sumljiva noč je v zraku
 prihaja mož povsod iskan
 poznam njegove misli
 poznam vsak njegov korak

 Ne vidi, ne, ne vidi
 ne vidi sence nad seboj
 slovi po svojem grehu
 zdaj grešil bom jaz

 Refren:

                 B5  G5 B5
   stran glejte vsi
F#5 G5              F#5 G5
   to je moje klanje
           A5        F#5
   pesek v oči sem dobil
   G5        F#5
   kriminal je zanj lek

 Solo:
 e|-------------------------------------------------
 B|-------------------------------------------------
 G|----------------9-11~---11b-11b-9----9h11r9~-----
 D|--9-11-12-11-12-------------------12-----------9-
 A|-------------------------------------------------
 E|-------------------------------------------------

 e|-------------------------------------------------
 B|-------------------------------------------------
 G|---------------------------------9----------11~--
 D|--/12---11--9-----/12---11--9-------12--11-------
 A|-------------------------------------------------
 E|-------------------------------------------------


 Zaprt je v vakuum s strahom
 privezan na svoj sickmental
 in hranim ga s strihninom
 na rane dajem belo sol

 Ne vidi, ne, ne vidi
 ne vidi zdaj je brez oči
 zavil sem jih v črnino
 podaril zverem


 
                 B5  G5 B5
   stran glejte vsi
F#5 G5              F#5 G5
   to je moje klanje
           A5        F#5
   pesek v oči sem dobil
   G5        F#5
   kriminal je zanj lek

                      B5  G5 B5
   sprva nem krik za tem
F#5 G5              F#5 G5
   to je moje klanje
             A5     F#5
   rane mu razijo profil
   G5        F#5
   kriminal je zanj lek

 Break:

 Stran glejte vsi
 to so moje sanje
 to so moje sanje
 ta kriminal
 so le moje sanje
 so le moje sanje


 
                 B5  G5 B5
   stran glejte vsi
F#5 G5		    F#5 G5
   to je moje klanje
           A5        F#5
   pesek v oči sem dobil
   G5        F#5
   kriminal je zanj lek

                      B5  G5 B5
   sprva nem krik za tem
F#5 G5              F#5 G5    
   to je moje klanje
            A5      F#5
   klinika maščevalnosti
           G5        F#5        B5
   je od danes le še kraj za kosti
            
Submit corrections


        Klinik lessons Hard to play? Try these video lessons and learn fast Klinik lessons
        
↑ Back to top | Tablatures and chords for acoustic guitar and electric guitar, ukulele, drums are parodies/interpretations of the original songs. You may use it for private study, scholarship, research or language learning purposes only