» » »

Siddharta - Klinik Tabs

Artists:  A B C D E F G H I J K L M N O P Q R S T U V W X Y Z # 

Klinik Tabs

(ver. 1) Click to play this song!
Siddharta
 Rating:
4/5 (4 votes)

 Klinik lessons Tabs too difficult? Try these video lessons and learn fast
 
                E|-----2-3-2-----2-3-2-----2-3-2-----0-2-0-|
B|-----------------------------------------|
G|-----------------------7---------4-------|
D|---4---------4-------5---------2---------| x7
A|-2---------2-----------------------------|
E|-----------------------------------------|

E|-------------------------------|
B|-------------------------------|
G|-------------------------------|
D|-9---9--9-9-99-9-9-95--5-5-55--|
A|-9---9--9-9-99-9-9-95--5-5-55--|
E|-7---7--7-7-77-7-7-73--3-3-33--|

E|-----------------------------|
B|-----------------------------|
G|-----------------------------|
D|-5-5-57--7-7-74--4-4-45-5-5--|
A|-5-5-57--7-7-74--4-4-45-5-5--|
E|-3-3-35--5-5-52--2-2-23-3-3--|

E|--------------------------------|
B|--------------------------------|
G|---------------9--9-9-9-9-------|
D|-----7-9-7-9-7------------------|
A|-7-9----------------------------|
E|--------------------------------|

E|----------------------------------|
B|----------------------------------|
G|-------------------------------11-|
D|-7---/12-11-9-12-11-9-14-12-11----|
A|----------------------------------|
E|----------------------------------|

E|-----2-3-2-----2-3-2-----2-3-2-----0-2-0-|
B|-----------------------------------------|
G|-----------------------7---------4-------|
D|---4---------4-------5---------2---------| x4
A|-2---------2-----------------------------|
E|-----------------------------------------|

E|-------------------------------|
B|-------------------------------|
G|-------------------------------|
D|-9---9--9-9-99-9-9-95--5-5-55--|
A|-9---9--9-9-99-9-9-95--5-5-55--|
E|-7---7--7-7-77-7-7-73--3-3-33--|

E|-----------------------------|
B|-----------------------------|
G|-----------------------------|
D|-5-5-57--7-7-74--4-4-45-5-5--|
A|-5-5-57--7-7-74--4-4-45-5-5--|
E|-3-3-35--5-5-52--2-2-23-3-3--|

E|-------------------------------|
B|-------------------------------|
G|-------------------------------|
D|-9---9--9-9-99-9-9-95--5-5-55--|
A|-9---9--9-9-99-9-9-95--5-5-55--|
E|-7---7--7-7-77-7-7-73--3-3-33--|

E|-----------------------------|
B|-----------------------------|
G|-----------------------------|
D|-5-5-57--7-7-74--4-4-45-5-5--|
A|-5-5-57--7-7-74--4-4-45-5-5--|
E|-3-3-35--5-5-52--2-2-23-3-3--|

E|-------------------------------|
B|-------------------------------|
G|-------------------------------|
D|-9---9--9-9-99-9-9-95--5-5-55--|
A|-9---9--9-9-99-9-9-95--5-5-55--|
E|-7---7--7-7-77-7-7-73--3-3-33--|

E|-----------------------------|
B|-----------------------------|
G|-----------------------------|
D|-5-5-57--7-7-7--4---5--------|
A|-5-5-57--7-7-7--4---5--------|
E|-3-3-35--5-5-5--2---3--------|
            
Submit corrections


        Klinik lessons Hard to play? Try these video lessons and learn fast Klinik lessons
        
↑ Back to top | Tablatures and chords for acoustic guitar and electric guitar, ukulele, drums are parodies/interpretations of the original songs. You may use it for private study, scholarship, research or language learning purposes only