» » »

Showbread - The Pig Nervosa Tabs

Artists:  A B C D E F G H I J K L M N O P Q R S T U V W X Y Z # 

The Pig Nervosa Tabs

(ver. 2) Click to play this song!
Showbread
 Rating:
4.4/5 (7 votes)
                Hey guys... this is my first tab.  Hope it's good.  Comment and rate.  I'm big into 
hardcore music, so Showbread is great.   God bless everybody!

Just part for now... More to come... check in for updates.

(Weird Noise x2)


CHORD PROGRESSION 1

e|-------------------------------------------------------------------------|
B|-------------------------------------------------------------------------|
G|-------------------------------------------------------------------------|
D|-7-7-7-7-7-7-7-7-13-13-13-13-13-13-13-13-5-5-5-5-5-5-5-5-5-5-5-5-5-5-5-5-|
A|-7-7-7-7-7-7-7-7-13-13-13-13-13-13-13-13-5-5-5-5-5-5-5-5-5-5-5-5-5-5-5-5-|
D|-7-7-7-7-7-7-7-7-13-13-13-13-13-13-13-13-5-5-5-5-5-5-5-5-5-5-5-5-5-5-5-5-|


e|-------------------------------------------------------------------------|
B|-------------------------------------------------------------------------|
G|-------------------------------------------------------------------------|
D|-11-11-11-11-11-11-11-11-10-10-10-10-10-10-10-10-2-2-2-2-2-2-2-2-2-2-2-2-|
A|-11-11-11-11-11-11-11-11-10-10-10-10-10-10-10-10-2-2-2-2-2-2-2-2-2-2-2-2-|
D|-11-11-11-11-11-11-11-11-10-10-10-10-10-10-10-10-2-2-2-2-2-2-2-2-2-2-2-2-|


e|---------|
B|---------|
G|---------|
D|-2-2-2-2-|
A|-2-2-2-2-|
D|-2-2-2-2-|


FILL 1

|-------------------------------|
|-------------------------------|
|-------------------------------|
|-7-7-7-----------5-5-5---------|
|-7-7-7-6-5-3-5-3-5-5-5-5-3-2-3-|
|-7-7-7-----------5-5-5---------|
            
Submit corrections

↑ Back to top | Tablatures and chords for acoustic guitar and electric guitar, ukulele, drums are parodies/interpretations of the original songs. You may use it for private study, scholarship, research or language learning purposes only