Home » S » Shocking Blue »

Shocking Blue - Venus Bass

Artists:  A B C D E F G H I J K L M N O P Q R S T U V W X Y Z # 

Venus Bass

(ver. 1) Click to play this song!
Shocking Blue
#   If you like this tab, please rate it above.  Thank you.


Bass Quiet during intro
 
     Verse   (Repeat during verse)      
|----|------------------------|
|----|--5-77----5-77----5-77--|
|-12\|77-7--5677-7--5677-7--56| 
|----|------------------------|

Chorus                 (repeat this section twice) (A=10th fret)
|----5-77----5-77----||-----------------------------------------|
|-77--7--5677-7------||5-77----5-77-57AAAAAAAA9977------5-77----|
|----------------5677||-7--5677-7-----------------AA9977-7--5677|
|--------------------||-----------------------------------------|

Lead
|-------------------------|
|---5-77----5-77----5-77--|
|77--7--5677-7--5677-7--56| 
|-------------------------|

Bridge
|-----------------|
|-----------------|
|-5h7-5h7-5h7-5h7-|
|-----------------|
            
Submit corrections

↑ Back to top | Tablatures and chords for acoustic guitar and electric guitar, ukulele, drums are parodies/interpretations of the original songs. You may use it for private study, scholarship, research or language learning purposes only