Home » S » Shocking Blue »

Shocking Blue - Venus Bass

Artists:  A B C D E F G H I J K L M N O P Q R S T U V W X Y Z # 

Venus Bass

(ver. 3) Click to play this song!
Shocking Blue
 Intro
  Q=125
 4/4
  Gtr I
  W          W          W          W
|----------|----------|----------|------|
|----------|----------|----------|------|
|----------|----------|----------|------|
|----------|----------|----------|------|


  W          W          E E E E E E E E   E E E E E E E E
|----------|----------|-----------------|-----------------|
|----------|----------|-----5-7-7-7-----|-----5-7-7-7-----|
|----------|----------|-7-7---------5-6-|-7-7---------5-6-|
|----------|----------|-----------------|-----------------|


                                       1st & 2nd Verses
  E E E E E E E E   E E E E E E E E     E E E E E E E E   E E E E E E E E
|-----------------|-----------------||------------------|-----------------|
|-----5-7-7-7-----|-----5-7-7-7-----||o-----5-7-7-7-----|-----5-7-7-7-----|
|-7-7---------5-6-|-7-7---------5-6-||o-7-7---------5-6-|-7-7---------5-6-|
|-----------------|-----------------||------------------|-----------------|


  E E E E E E E E   E E E E E E E E   E E E E E E E E   E E E E E E E E
|-----------------|-----------------|-----------------|-----------------|
|-----5-7-7-7-----|-----5-7-7-7-----|-----5-7-7-7-----|-----5-7-7-7-----|
|-7-7---------5-6-|-7-7---------5-6-|-7-7---------5-6-|-7-7---------5-6-|
|-----------------|-----------------|-----------------|-----------------|


                                  Chorus
                                $
  E E E E E E E E   E E Q  H       e E E E e E E E   e E E E e E E E
|-----------------|-------------||-----5-7-7-7-----|-----5-7-7-7-----|
|-----5-7-7-7-----|-------------||-7-7-----------5-|-7-7-------------|
|-7-7---------5-6-|-7-----------||-------------7---|---------------7-|
|-----------------|-------------||-----------------|-----------------|


  e E E E e E E E   e E E E e E E E   E E E E E E E E   E E E E E E E E
|-----------------|-----------------|-5-5-5-5-5-5-5-5-|-4-4-2-2---------|
|-----5-7-7-7-----|-----5-7-7-7---5-|-----------------|---------4-4-4-4-|
|-7-7---------5-6-|-7-7---------7---|-----------------|-----------------|
|-----------------|-----------------|-----------------|-----------------|


  e E E E e E E E   e E E E e E E E   E E E E E E E E   E E E E E E E E
|-----------------|-----------------|-5-5-5-5-5-5-5-5-|-4-4-2-2---------|
|-----5-7-7-7-----|-----5-7-7-7---5-|-----------------|---------4-4-4-4-|
|-7-7---------5-6-|-7-7---------7---|-----------------|-----------------|
|-----------------|-----------------|-----------------|-----------------|


                                      Guitar Solo
  1.
  E E E E E E E E   E E E E E E E E    E E E E E E E E   E E E E E E E E
|-----------------|-----------------||-----------------|-----------------|
|-----5-7-7-7-----|-----5-7-7-7-----||-----5-7-7-7-----|-----5-7-7-7-----|
|-7-7---------5-6-|-7-7---------5-6-||-7-7---------5-6-|-7-7---------5-6-|
|-----------------|-----------------||-----------------|-----------------|


  E E E E E E E E   E E E E E E E E   E E E E E E E E
|-----------------|-----------------|-----------------|
|-----5-7-7-7-----|-----5-7-7-7-----|-----5-7-7-7-----|
|-7-7---------5-6-|-7-7---------5-6-|-7-7---------5-6-|
|-----------------|-----------------|-----------------|


  E E E E E E E E   E E E E E E E E   E E E E E E E E
|-----------------|-----------------|------------------||
|-----5-7-7-7-----|-----5-7-7-7-----|-----5-7-7-7-----o||
|-7-7---------5-6-|-7-7---------5-6-|-7-7---------5-6-o||
|-----------------|-----------------|------------------||


  2.,D.S.
  E E E E E E E E   E E E E E E E E
|-----------------|-----------------|
|-----5-7-7-7-----|-----5-7-7-7---5-|
|-7-7---------5-6-|-7-7---------7---|
|-----------------|-----------------|


                                    To Coda
  S E. +Q   S E. +Q     S E. +Q   S E. +Q
|---------------------|---------------------||
|-7h9--(9)--7h9--(9)--|-7h9--(9)--7h9--(9)--||
|---------------------|---------------------||
|---------------------|---------------------||


 Interlude
  E E E E E E E E   E E E E E E E E   E E E E E E E E   E E E E E E E E
|-----------------|-----------------|-----------------|-----------------|
|-----5-7-7-7-----|-----5-7-7-7-----|-----5-7-7-7-----|-----5-7-7-7-----|
|-7-7---------5-6-|-7-7---------5-6-|-7-7---------5-6-|-7-7---------5-6-|
|-----------------|-----------------|-----------------|-----------------|


                                                     D.S. al Coda
  E E E E E E E E   E E E E E E E E   E E E E E E E E   E E Q  H
|-----------------|-----------------|-----------------|-------------||
|-----5-7-7-7-----|-----5-7-7-7-----|-----5-7-7-7-4---|-------------||
|-7-7---------5-6-|-7-7---------5-6-|-7-7-----------7-|-7-----------||
|-----------------|-----------------|-----------------|-------------||


 Outro
  &
  W          W          W          W
|----------|----------|----------|------|
|----------|----------|----------|------|
|----------|----------|----------|------|
|----------|----------|----------|------|


  W          W          E E E E E E E E   E E E E E E E E
|----------|----------|-----------------|-----------------|
|----------|----------|-----5-7-7-7-----|-----5-7-7-7-----|
|----------|----------|-7-7---------5-6-|-7-7---------5-6-|
|----------|----------|-----------------|-----------------|


  E E E E E E E E   E E E E E E E E   E E E E E E E E
|-----------------|-----------------|-----------------|
|-----5-7-7-7-----|-----5-7-7-7-----|-----5-7-7-7-----|
|-7-7---------5-6-|-7-7---------5-6-|-7-7---------5-6-|
|-----------------|-----------------|-----------------|


  E E E E E E E E   E E E E E E E E   E E E E E E E E
|-----------------|-----------------|-----------------*|
|-----5-7-7-7-----|-----5-7-7-7-----|-----5-7-7-7-----*|
|-7-7---------5-6-|-7-7---------5-6-|-7-7---------5-6-*|
|-----------------|-----------------|-----------------*|            
Submit corrections

↑ Back to top | Tablatures and chords for acoustic guitar and electric guitar, ukulele, drums are parodies/interpretations of the original songs. You may use it for private study, scholarship, research or language learning purposes only