Home » S » Shinedown »

Shinedown - My Name Wearing Me Out Tabs

Artists:  A B C D E F G H I J K L M N O P Q R S T U V W X Y Z # 

My Name Wearing Me Out Tabs

(ver. 1) Click to play this song!
Shinedown
or feedback and give this tab a good rating because I think I got it pretty correct. :)


Intro:
Clean Guitar
D|-------------------|
A|-3-3-1-4---3-3-----|
F|---------------3-2-|
C|-------------------|
G|-------------------|
C|-------------------|

D|-------------------|
A|-3-3-1-4---3-3-----|
F|---------------3-2-|
C|-------------------|
G|-------------------|
C|-------------------|

D|-------------------|
A|-3-3-1-4---3-3-----|
F|---------------3-2-|
C|-------------------|
G|-------------------|
C|-------------------|

D|-------------------|
A|-3-3-1-4---3-3-----|
F|---------------3-2-|
C|-------------------|
G|-------------------|
C|-------------------|

Verse:
Guitar 1
D|---------------------------------------------------|
A|---------------------------------------------------|
F|---------------------------------------------------|
C|---------------------------------------------------|
G|---------------------------------------------------|
C|000000000000000000000000000000000000000000000000000|
  •••••••••••••••••••••••••••••••••••••••••••••••••••
Guitar 2
D|--------------------------------------------------------------|
A|--------------------------------------------------------------|
F|--------------------------------------------------------------|
C|--------------------------------------------------------------|
G|--12--12--10--13--12--12--8--7--12--12--10--13--12--12--8--7--|
C|--0---0---0---0---0---0---0--0--0---0---0---0---0---0---0--0--|

Pre-Chorus:
Guitar 1
D|---------------------------|
A|---------------------------|
F|---------------------------|
C|333333333332222222222222222|
G|111111111110000000000000000|
C|---------------------------|
  ••••••••••••••••••••• ••
Guitar 2
D|----------------------------------|
A|----------------------------------|
F|----------------------------------|
C|----------------------------------|
G|--13--13--13--13--10--10--10--10--|
C|--0---0---0---0---0---0---0---0---|

Chorus:
Guitar 1&2
D|-----------------------------------------------------------------|
A|-----------------------------------------------------------------|
F|-----------------------------------------------------------------|
C|-----------------------------------------------------------------|
G|-0-0-0-0-0-0-0-0-3-3-3-3-3-3-3-3-8-8-8-8-8-8-8-8-7-7-7-7-7-7-7-7-|
C|-0-0-0-0-0-0-0-0-3-3-3-3-3-3-3-3-8-8-8-8-8-8-8-8-7-7-7-7-7-7-7-7-|

Guitar 1&2
D|--------------------------------------------------------------------------|
A|--------------------------------------------------------------------------|
F|--------------------------------------------------------------------------|
C|--------------------------------------------------------------------------|
G|-0-0-0-0-0-0-0-0-3-3-3-3-3-3-3-3-10-10-10-10-10-10-10-10-8-8-8-8-8-8-8-8--|
C|-0-0-0-0-0-0-0-0-3-3-3-3-3-3-3-3-10-10-10-10-10-10-10-10-8-8-8-8-8-8-8-8--|

Guitar 1&2(continued)
D|-------------------------------------------------|
A|-------------------------------------------------|
F|-------------------------------------------------|
C|-------------------------------------------------|
G|-7-7-7-7-7-7-7-7-8-8-8-8-8-8-8-8-5-5-5-5-5-5-5-5-|
C|-7-7-7-7-7-7-7-7-8-8-8-8-8-8-8-8-5-5-5-5-5-5-5-5-|

Break:
Clean Guitar
D|-------------------|
A|-3-3-1-4---3-3-----|
F|---------------3-2-|
C|-------------------|
G|-------------------|
C|-------------------|

D|-------------------|
A|-3-3-1-4---3-3-----|
F|---------------3-2-|
C|-------------------|
G|-------------------|
C|-------------------|

Verse:
Guitar 1
D|---------------------------------------------------|
A|---------------------------------------------------|
F|---------------------------------------------------|
C|---------------------------------------------------|
G|---------------------------------------------------|
C|000000000000000000000000000000000000000000000000000|
  •••••••••••••••••••••••••••••••••••••••••••••••••••
Guitar 2
D|--------------------------------------------------------------|
A|--------------------------------------------------------------|
F|--------------------------------------------------------------|
C|--------------------------------------------------------------|
G|--12--12--10--13--12--12--8--7--12--12--10--13--12--12--8--7--|
C|--0---0---0---0---0---0---0--0--0---0---0---0---0---0---0--0--|

Pre-Chorus:
Guitar 1
D|---------------------------|
A|---------------------------|
F|---------------------------|
C|333333333332222222222222222|
G|111111111110000000000000000|
C|---------------------------|
  ••••••••••••••••••••• ••
Guitar 2
D|----------------------------------|
A|----------------------------------|
F|----------------------------------|
C|----------------------------------|
G|--13--13--13--13--10--10--10--10--|
C|--0---0---0---0---0---0---0---0---|

Chorus:
Guitar 1&2
D|-----------------------------------------------------------------|
A|-----------------------------------------------------------------|
F|-----------------------------------------------------------------|
C|-----------------------------------------------------------------|
G|-0-0-0-0-0-0-0-0-3-3-3-3-3-3-3-3-8-8-8-8-8-8-8-8-7-7-7-7-7-7-7-7-|
C|-0-0-0-0-0-0-0-0-3-3-3-3-3-3-3-3-8-8-8-8-8-8-8-8-7-7-7-7-7-7-7-7-|

Guitar 1&2
D|--------------------------------------------------------------------------|
A|--------------------------------------------------------------------------|
F|--------------------------------------------------------------------------|
C|--------------------------------------------------------------------------|
G|-0-0-0-0-0-0-0-0-3-3-3-3-3-3-3-3-10-10-10-10-10-10-10-10-8-8-8-8-8-8-8-8--|
C|-0-0-0-0-0-0-0-0-3-3-3-3-3-3-3-3-10-10-10-10-10-10-10-10-8-8-8-8-8-8-8-8--|

Guitar 1&2(continued)
D|-------------------------------------------------|
A|-------------------------------------------------|
F|-------------------------------------------------|
C|-------------------------------------------------|
G|-7-7-7-7-7-7-7-7-8-8-8-8-8-8-8-8-5-5-5-5-5-5-5-5-|
C|-7-7-7-7-7-7-7-7-8-8-8-8-8-8-8-8-5-5-5-5-5-5-5-5-|

Bridge:
Guitar 1
D|-------------------------------------------|
A|-------------------------------------------|
F|-7-7-7-9-9-9-10-10-15-15-15-14-14-14-12-12-|
C|-------------------------------------------|
G|-5-5-5-7-7-7-8--8--13-13-13-12-12-12-10-10-|
C|-------------------------------------------|

Guitar 2
D|---------------------------------|
A|---------------------------------|
F|---------------------------------|
C|---------------------------------|
G|-0-0-0-2-2-2-3-3-8-8-8-7-7-7-5-5-|
C|-0-0-0-2-2-2-3-3-8-8-8-7-7-7-5-5-|

Guitar 1
D|--------------------------------------|
A|--------------------------------------|
F|-7-7-7-9-9-9-10-10--5-5-5--5-5-5--5-5-|
C|--------------------------------------|
G|-5-5-5-7-7-7-8--8---3-3-3--3-3-3--3-3-|
C|--------------------------------------|

Guitar 2
D|------------------------------------|
A|------------------------------------|
F|------------------------------------|
C|------------------5-5-5--5-5-5--5-5-|
G|-0-0-0-2-2-2-3-3--3-3-3--3-3-3--3-3-|
C|-0-0-0-2-2-2-3-3--------------------|

Guitar 1
D|-------------------------------------------|
A|-------------------------------------------|
F|-7-7-7-9-9-9-10-10-15-15-15-14-14-14-12-12-|
C|-------------------------------------------|
G|-5-5-5-7-7-7-8--8--13-13-13-12-12-12-10-10-|
C|-------------------------------------------|

Guitar 2
D|---------------------------------|
A|---------------------------------|
F|---------------------------------|
C|---------------------------------|
G|-0-0-0-2-2-2-3-3-8-8-8-7-7-7-5-5-|
C|-0-0-0-2-2-2-3-3-8-8-8-7-7-7-5-5-|

Guitar 1
D|----------------------------------------------|
A|----------------------------------------------|
F|-7-7-7-9-9-9-10-10--5------5------5------5-55-|
C|----------------------------------------------|
G|-5-5-5-7-7-7-8--8---3--33--3--33--3--33--3-33-|
C|----------------------------------------------|

Guitar 2
D|--------------------------------------------|
A|--------------------------------------------|
F|--------------------------------------------|
C|------------------5------5------5------5-55-|
G|-0-0-0-2-2-2-3-3--3--33--3--33--3--33--3-33-|
C|-0-0-0-2-2-2-3-3----------------------------|

Guitar 1
D|-------------------------------------------|
A|-------------------------------------------|
F|-7-7-7-9-9-9-10-10-15-15-15-14-14-14-12-12-|
C|-------------------------------------------|
G|-5-5-5-7-7-7-8--8--13-13-13-12-12-12-10-10-|
C|-------------------------------------------|

Guitar 2
D|---------------------------------|
A|---------------------------------|
F|---------------------------------|
C|---------------------------------|
G|-0-0-0-2-2-2-3-3-8-8-8-7-7-7-5-5-|
C|-0-0-0-2-2-2-3-3-8-8-8-7-7-7-5-5-|

Guitar 1
D|--------------------------------------|
A|--------------------------------------|
F|-7-7-7-9-9-9-10-10--5-5-5--5-5-5--5-5-|
C|--------------------------------------|
G|-5-5-5-7-7-7-8--8---3-3-3--3-3-3--3-3-|
C|--------------------------------------|

Guitar 2
D|------------------------------------|
A|------------------------------------|
F|------------------------------------|
C|------------------5-5-5--5-5-5--5-5-|
G|-0-0-0-2-2-2-3-3--3-3-3--3-3-3--3-3-|
C|-0-0-0-2-2-2-3-3--------------------|

Micro Solo:
Guitar 1
D|-----------------------------------------------------------------------|
A|-----------------------------------------------------------------------|
F|-----------------------------------------------------------------------|
C|-----------------------------------------------------------------------|
G|-8-8-8-8-8-8-8-8-8-8-8-8-8-8-10-10-10-10-10-10-10-10-10-10-10-10-10-10-|
C|-8-8-8-8-8-8-8-8-8-8-8-8-8-8-10-10-10-10-10-10-10-10-10-10-10-10-10-10-|

Guitar 2(I am pretty sure this is done by tremolo picking with some kind of 
effects pedal, but I am not sure. I spent a lot of time on this part and I find it 
hard to mimic that exact sound)
D|-22-----20\\\-|
A|--------------|
F|--------------|
C|--------------|
G|--------------|
C|--------------|

Quiet Part:
Clean Guitar
D|-----------------------------|
A|-3-3-1-4---3-3-------3-3-1-4-|
F|---------------3-2-----------|
C|-----------------------------|
G|-----------------------------|
C|-----------------------------|

Guitar 2
D|----------------------------------------------------|
A|----------------------------------------------------|
F|----------------------------------------------------|
C|----------------------------------------------------|
G|-12-12-12-12--12-12-12-12--10-10-10-10--13-13-13-13-|
C|----------------------------------------------------|
   •  •  •  •   •  •  •  •   •  •  •  •   •  •  •  •
D|----------------------------------------------------|
A|----------------------------------------------------|
F|----------------------------------------------------|
C|----------------------------------------------------|
G|-12-12-12-12--12-12-12-12--8-8-8-8--7-7-7-7---------|
C|----------------------------------------------------|
   •  •  •  •   •  •  •  •   • • • •  • • • •
D|----------------------------------------------------|
A|----------------------------------------------------|
F|----------------------------------------------------|
C|----------------------------------------------------|
G|-12-12-12-12--12-12-12-12--10-10-10-10--13-13-13-13-|
C|----------------------------------------------------|
   •  •  •  •   •  •  •  •   •  •  •  •   •  •  •  •
Big Chorus:
Guitar 1
D|-----------------------------------------------------------------|
A|-----------------------------------------------------------------|
F|-----------------------------------------------------------------|
C|-----------------------------------------------------------------|
G|-0-0-0-0-0-0-0-0-3-3-3-3-3-3-3-3-8-8-8-8-8-8-8-8-7-7-7-7-7-7-7-7-|
C|-0-0-0-0-0-0-0-0-3-3-3-3-3-3-3-3-8-8-8-8-8-8-8-8-7-7-7-7-7-7-7-7-|

Guitar 1
D|--------------------------------------------------------------------------|
A|--------------------------------------------------------------------------|
F|--------------------------------------------------------------------------|
C|--------------------------------------------------------------------------|
G|-0-0-0-0-0-0-0-0-3-3-3-3-3-3-3-3-10-10-10-10-10-10-10-10-8-8-8-8-8-8-8-8--|
C|-0-0-0-0-0-0-0-0-3-3-3-3-3-3-3-3-10-10-10-10-10-10-10-10-8-8-8-8-8-8-8-8--|

Guitar 1
D|-----------------------------------------------------------------|
A|-----------------------------------------------------------------|
F|-----------------------------------------------------------------|
C|-----------------------------------------------------------------|
G|-0-0-0-0-0-0-0-0-3-3-3-3-3-3-3-3-8-8-8-8-8-8-8-8-7-7-7-7-7-7-7-7-|
C|-0-0-0-0-0-0-0-0-3-3-3-3-3-3-3-3-8-8-8-8-8-8-8-8-7-7-7-7-7-7-7-7-|

Guitar 1
D|--------------------------------------------------------------------------|
A|--------------------------------------------------------------------------|
F|--------------------------------------------------------------------------|
C|--------------------------------------------------------------------------|
G|-0-0-0-0-0-0-0-0-3-3-3-3-3-3-3-3-10-10-10-10-10-10-10-10-8-8-8-8-8-8-8-8--|
C|-0-0-0-0-0-0-0-0-3-3-3-3-3-3-3-3-10-10-10-10-10-10-10-10-8-8-8-8-8-8-8-8--|
Guitar 1(continued)
D|-------------------------------------------------|
A|-------------------------------------------------|
F|-------------------------------------------------|
C|-------------------------------------------------|
G|-7-7-7-7-7-7-7-7-8-8-8-8-8-8-8-8-5-5-5-5-5-5-5-5-|
C|-7-7-7-7-7-7-7-7-8-8-8-8-8-8-8-8-5-5-5-5-5-5-5-5-|

Outro:
Clean Guitar
D|---------------------------------------|
A|-3-3-1-4--3-3-1-4---3-3-1-4---3--3---3-|
F|---------------------------------------|
C|---------------------------------------|
G|---------------------------------------|
C|---------------------------------------|

Guitar 1
D|--------------------------------------------------------------------------|
A|--------------------------------------------------------------------------|
F|--------------------------------------------------------------------------|
C|--------------------------------------------------------------------------|
G|--0~~~~~~~~~~~~~~~~~~~~~~~~~~~~~~~~~~~~~~~~~~~~~~~~~~~~~~~~~~~~~~~~~~~~~~~|
C|--0~~~~~~~~~~~~~~~~~~~~~~~~~~~~~~~~~~~~~~~~~~~~~~~~~~~~~~~~~~~~~~~~~~~~~~~|
            
Submit corrections

↑ Back to top | Tablatures and chords for acoustic guitar and electric guitar, ukulele, drums are parodies/interpretations of the original songs. You may use it for private study, scholarship, research or language learning purposes only