Home » S » Shinedown »

Shinedown - Im Alive Tabs

Artists:  A B C D E F G H I J K L M N O P Q R S T U V W X Y Z # 

Im Alive Tabs

(ver. 1) Click to play this song!
Shinedown
e|-----14-----10----12---7----9-7~|
B|-0-12---0-12--0-10--0-5--0-7----|(Play numerous times throughout intro and verse)
G|--------------------------------|
D|--------------------------------|
A|--------------------------------|
E|--------------------------------|

"I'm Aliiivee"
e|--------| |--------| |-------| |--------|
B|--------| |--------| |-------| |--------|
G|--------| |--------| |-9-----| |-12-----|
D|-9------| |-5------| |-9-----| |-12-----|
A|-9------| |-5------| |-7(x14)| |-10(x20)|
E|-7(x14)-| |-3(x14)-| |-------| |--------|


[Verse] Basically it's the intro riff, but if you don't
want to play that, you can play this instead if you want:

e|----------------------------| |------------------------------------|
B|----------------------------| |------------------------------------|
G|----------------------------| |------------------------------------|
D|----------------------------| |------------------------------------|
A|----------------------------| |---------------7(x13)---------------|
E|-7(x13)-3(x13)-0(x13)-3(x13)| |-7(x13)-3(x13)--------3(x8)-5(x8)---|

[Pre-Chorus riff] May not be right, but it's the closest I've got so far:

e|-----14----10----12----10----12-10-----|
B|-0-12--0-12--0-10--0-10--0-10----------|
G|---------------------------------------|
D|---------------------------------------|
A|---------------------------------------|
E|---------------------------------------|


[Chorus]

e|----|      |----|      |----|     |-----|    |----|     |----|
B|----|      |----|      |----|     |-----|    |----|     |----|
G|----|      |----|      |-9--|     |-12--|    | 7--|     |-9--|
D|-9--|      |-5--|      |-9--|     |-12--|    |-7--|     |-9--|
A|-9--|      |-5--|      |-7--|(x15)|-10--|(x8)|-5--|(x4) |-7--|(x4)
E|-7--|(x15) |-3--|(x15) |----|     |-----|    |----|     |----|


e|----|      |----|      |----|     |-----|    |----|     |----|     |----|
B|----|      |----|      |----|     |-----|    |----|     |----|     |----|
G|----|      |----|      |-9--|     |-12--|    | 7--|     |-9--|     |----|
D|-9--|      |-5--|      |-9--|     |-12--|    |-7--|     |-9--|     |-9--|
A|-9--|      |-5--|      |-7--|(x15)|-10--|(x8)|-5--|(x4) |-7--|(x4) |-9--|
E|-7--|(x15) |-3--|(x15) |----|     |-----|    |----|     |----|     |-7--|(x20)


[Bridge] "Woah oh oh" (Just a note, you can also play the intro riff if you want
in this part) :D

e|---------|     |-----------| |-----------------|
B|---------|     |-----------| |-----------------|
G|---------|     |-----------| |-----------------|
D|-9-9-9-9-|     |-9-9-9-9-9-| |-9-9-9-9-9-9-9-9-|
A|-9-9-9-9-|     |-9-9-9-9-9-| |-9-9-9-9-9-9-9-9-|
E|-7-7-7-7-|(x2) |-7-7-7-7-7-| |-7-7-7-7-7-7-7-7-|

[Solo]
e|-19~-21b-22b--19~-21b-22b---|
B|----------------------------|
G|----------------------------|
D|----------------------------|
A|----------------------------|
E|----------------------------|

[Repeat Chorus and then play the intro riff to finish the song]            
Submit corrections

↑ Back to top | Tablatures and chords for acoustic guitar and electric guitar, ukulele, drums are parodies/interpretations of the original songs. You may use it for private study, scholarship, research or language learning purposes only