Home » S » Shinedown »

Shinedown - Devil Tabs

Artists:  A B C D E F G H I J K L M N O P Q R S T U V W X Y Z # 

Devil Tabs

(ver. 1) Click to play this song!
Shinedown
[Intro]


e|----------------------------------------|------------------------------------------|
B|---------------------------11\------14\-|---------------------------11\-----14\----|
G|-------13b14--10\-7--------x--------x---|-------13b14--10\-7--------x-------x------|
D|--------------x---x--------8\-------11\-|--------------x---x--------8\------11\----|
A|-0-0-0-11b12--8\--5--0-0-0----0-0-0-----|-0-0-0-11b12--8\--5--0-0-0----0-0-0---0-0-|
D|-0-0-0---------------0-0-0----0-0-0-----|-0-0-0---------------0-0-0----0-0-0---0-0-|

[Verse 1]

                                                                                  
e|----------------------------------------|---------------------------------------|
B|---------------------------11\------14\-|---------------------------11\-----14\-|
G|-------13b14--10\-7--------x--------x---|-------13b14--10\-7--------x-------x---|
D|-0-0-0--------x---x--------8\-------11\-|-0-0-0--------x---x--------8\------11\-|
A|-0-0-0-11b12--8\--5--0-0-0----0-0-0-----|-0-0-0-11b12--8\--5--0-0-0----0-0-0----|
D|-0-0-0---------------0-0-0----0-0-0-----|-0-0-0---------------0-0-0----0-0-0----|

e|----------------------------------------|------------------------------------------|
B|---------------------------11\------14\-|---------------------------11\-----14\----|
G|-------13b14--10\-7--------x--------x---|-------13b14--10\-7--------x-------x------|
D|-0-0-0--------x---x--------8\-------11\-|-0-0-0--------x---x--------8\------11\----|
A|-0-0-0-11b12--8\--5--0-0-0----0-0-0-----|-0-0-0-11b12--8\--5--0-0-0----0-0-0---0-0-|
D|-0-0-0---------------0-0-0----0-0-0-----|-0-0-0---------------0-0-0----0-0-0---0-0-|

e|----------------------------------------|---------------------------------------|
B|---------------------------11\------14\-|---------------------------11\-----14\-|
G|-------13b14--10\-7--------x--------x---|-------13b14--10\-7--------x-------x---|
D|-0------------x---x--------8\-------11\-|-0------------x---x--------8\------11\-|
A|-0---0-11b12--8\--5--0-0-0----0-0-0-----|-0---0-11b12--8\--5--0-0-0----0-0-0----|
D|-0---0---------------0-0-0----0-0-0-----|-0---0---------------0-0-0----0-0-0----|

e|----------------------------------------|---------------------------------------|
B|---------------------------11\------14\-|---------------------------11\-----14\-|
G|-------13b14--10\-7--------x--------x---|-------13b14--10\-7--------x-------x---|
D|-0------------x---x--------8\-------11\-|-0------------x---x--------8\------11\-|
A|-0---0-11b12--8\--5--0-0-0----0-0-0-----|-0---0-11b12--8\--5--0-0-0----0-0-0----|
D|-0---0---------------0-0-0----0-0-0-----|-0---0---------------0-0-0----0-0-0----|

[Pre-chorus]
(synth part, light ring-outs)

e|-------------13~---20~----18~---17~---15~---13~--|
B|-15~---17~---------------------------------------|
G|-------------------------------------------------|
D|-------------------------------------------------|
A|-------------------------------------------------|
D|-------------------------------------------------|

e|-18~---17~---15~---13~---\-----|
B|-15~----------------------15|--|
G|-------------------------------|
D|-------------------------------|
A|-------------------------------|
D|-------------------------------|

[Chorus]


e|------------------------------|------------------------------|
B|------------------------------|------------------------------|
G|------------------------------|------------------------------|
D|-0-0-----0-----0-0-----0---0--|-8-8-----8-----8-8-----8---8--|
A|-0-0---0-0-----0-0---0-0---0--|-8-8---8-8-----8-8---8-8---8--|
D|-0-0---0-0-----0-0---0-0---0--|-8-8---8-8-----8-8---8-8---8--|

e|--------------------------------|----------------------------------|
B|--------------------------------|----------------------------------|
G|--------------------------------|--------------------------5---5---|
D|-7-5-----5---5---5-5---7-5---5--|-0-0--0---0---0---0-0-----x---x---|
A|-7-5---5-5---5---5-5---x-5---5--|-0-0--0-0-0---0---0-0---0-3---3---|
D|-7-5---5-5---5---5-5---7-5---5--|-0-0--0-0-0---0---0-0---0---------|

[Turnaround]


e|----------------------------------------|--------------------(6-5-3-8--6-5)---------|
B|---------------------------11\------14\-|-------------------------------------------|
G|-------13b14--10\-7--------x--------x---|-------13b14--10\-7------------------------|
D|--------------x---x--------8\-------11\-|--------------x---x--8-7-5-10-8-7-5-7-5-0--|
A|-0-0-0-11b12--8\--5--0-0-0----0-0-0-----|-0-0-0-11b12--8\--5---------------5-7-5-0--|
D|-0-0-0---------------0-0-0----0-0-0-----|-0-0-0----------------------------5---5-0--|

[Verse 2]


e|----------------------------------------|---------------------------------------|
B|---------------------------11\------14\-|---------------------------11\-----14\-|
G|-------13b14--10\-7--------x--------x---|-------13b14--10\-7--------x-------x---|
D|-0-0-0--------x---x--------8\-------11\-|-0-0-0--------x---x--------8\------11\-|
A|-0-0-0-11b12--8\--5--0-0-0----0-0-0-----|-0-0-0-11b12--8\--5--0-0-0----0-0-0----|
D|-0-0-0---------------0-0-0----0-0-0-----|-0-0-0---------------0-0-0----0-0-0----|

e|----------------------------------------|------------------------------------------|
B|---------------------------11\------14\-|---------------------------11\-----14\----|
G|-------13b14--10\-7--------x--------x---|-------13b14--10\-7--------x-------x------|
D|-0------------x---x--------8\-------11\-|-0------------x---x--------8\------11\----|
A|-0---0-11b12--8\--5--0-0-0----0-0-0-----|-0---0-11b12--8\--5--0-0-0----0-0-0---0-0-|
D|-0---0---------------0-0-0----0-0-0-----|-0---0---------------0-0-0----0-0-0---0-0-|

[Pre-chrous]


e|-------------13~---20~----18~---17~---15~---13~--|
B|-15~---17~---------------------------------------|
G|-------------------------------------------------|
D|-------------------------------------------------|
A|-------------------------------------------------|
D|-------------------------------------------------|

e|-18~---17~---15~---13~---\-----|
B|-15~----------------------15|--|
G|-------------------------------|
D|-------------------------------|
A|-------------------------------|
D|-------------------------------|

[Chorus]


e|------------------------------|------------------------------|
B|------------------------------|------------------------------|
G|------------------------------|------------------------------|
D|-0-0-----0-----0-0-----0---0--|-8-8-----8-----8-8-----8---8--|
A|-0-0---0-0-----0-0---0-0---0--|-8-8---8-8-----8-8---8-8---8--|
D|-0-0---0-0-----0-0---0-0---0--|-8-8---8-8-----8-8---8-8---8--|

e|--------------------------------|----------------------------------|
B|--------------------------------|----------------------------------|
G|--------------------------------|--------------------------5---5---|
D|-7-5-----5---5---5-5---7-5---5--|-0-0--0---0---0---0-0-----x---x---|
A|-7-5---5-5---5---5-5---x-5---5--|-0-0--0-0-0---0---0-0---0-3---3---|
D|-7-5---5-5---5---5-5---7-5---5--|-0-0--0-0-0---0---0-0---0---------|

[Instrumental]


e|------------------------------------------|
B|--------------------------------------x\--|
G|--------------------------------------x\--|
D|--------------------------------------x\--|
A|--------7---------------------------------|
D|-0------7--8------8-\5------5\-0----------|

[Bridge]


e|-------------------------------------------|-------------------------------------------|
B|-------------------------------------------|-------------------------------------------|
G|----------7-7-7-5-5-5----------7-7-7-5-5-5-|-------------------------------------------|
D|-0--0---0-x-x-x-x-x-x-0--0---0-x-x-x-x-x-x-|-8--8---8-------------8--8---8-------------|
A|-0--0---0-5-5-5-3-3-3-0--0---0-5-5-5-3-3-3-|-8--8---8-------------8--8---8-------------|
D|-0--0---0-------------0--0---0-------------|-8--8---8-8-8-8-7-7-7-8--8---8-8-8-8-7-7-7-|

e|----------------------------------------|--------------------------------------------------|
B|----------------------------------------|--------------------------------------------------|
G|----------------------------------------|----------------------7-7-7-----------------------|
D|-5--5---5-------------5--5---5-------0--|----------------------x-x-x-----------------------|
A|-5--5---5-5-5-5-3-3-3-5--5---5-5-5-5-0--|-5-5-5-----5-5-5------5-5-5-0-0-0-12-12-10-10-8-8-|
D|-5--5---5-5-5-5-3-3-3-5--5---5-5-5-5-0--|-------0---------0--0-------0-0-0-12-12-10-10-8-8-|

[Chorus]


e|------------------------------|------------------------------|
B|------------------------------|------------------------------|
G|------------------------------|------------------------------|
D|-0-0-----0-----0-0-----0---0--|-8-8-----8-----8-8-----8---8--|
A|-0-0---0-0-----0-0---0-0---0--|-8-8---8-8-----8-8---8-8---8--|
D|-0-0---0-0-----0-0---0-0---0--|-8-8---8-8-----8-8---8-8---8--|

e|--------------------------------|--------------------------------------|
B|--------------------------------|--------------------------------------|
G|--------------------------------|--------------------------5-5-5-5-5-5-|
D|-7-5-----5---5---5-5---7-5---5--|-0-0--0---0---0---0-0-----x-x-x-x-x-x-|
A|-7-5---5-5---5---5-5---x-5---5--|-0-0--0-0-0---0---0-0---0-3-3-3-3-3-3-|
D|-7-5---5-5---5---5-5---7-5---5--|-0-0--0-0-0---0---0-0---0-------------|

e|------------------------------|------------------------------|
B|------------------------------|------------------------------|
G|------------------------------|------------------------------|
D|-0-0-----0-----0-0-----0---0--|-8-8-----8-----8-8-----8---8--|
A|-0-0---0-0-----0-0---0-0---0--|-8-8---8-8-----8-8---8-8---8--|
D|-0-0---0-0-----0-0---0-0---0--|-8-8---8-8-----8-8---8-8---8--|

e|--------------------------------|----------------------------------|
B|--------------------------------|----------------------------------|
G|--------------------------------|--------------------------5---5---|
D|-7-5-----5---5---5-5---7-5---5--|-0-0--0---0---0---0-0-----x---x---|
A|-7-5---5-5---5---5-5---x-5---5--|-0-0--0-0-0---0---0-0---0-3---3---|
D|-7-5---5-5---5---5-5---7-5---5--|-0-0--0-0-0---0---0-0---0---------|

[Outro]
(synth line)


e|-------------13~---20~----18~---17~---15~---13~--|
B|-15~---17~---------------------------------------|
G|-------------------------------------------------|
D|-------------------------------------------------|
A|-------------------------------------------------|
D|-------------------------------------------------|

e|-18~---17~---15~---13~---17~--|
B|-15~--------------------------|
G|------------------------------|
D|------------------------------|
A|------------------------------|
D|------------------------------|            
Submit corrections

↑ Back to top | Tablatures and chords for acoustic guitar and electric guitar, ukulele, drums are parodies/interpretations of the original songs. You may use it for private study, scholarship, research or language learning purposes only