Home » S » Shinedown »

Shinedown - Creatures Tabs

Artists:  A B C D E F G H I J K L M N O P Q R S T U V W X Y Z # 

Creatures Tabs

(ver. 1) Click to play this song!
Shinedown
[Intro]
 
Guitar
e|---------------------------------------|
B|---------------------------------------|
G|------0--------0---------0--------0----|
D|----4---4----4---4-----4---4----4---4--| (X2)
A|-2--------0----------------------------|
E|--------------------2---------3--------|
 
This sounds better for a single guitar IMO:
e|---------------------------------------|
B|---------------------------------------|
G|------0--------0---------0---0---------|
D|----4---4----4---4-----4---4---4-------|
A|-2--------0----------------------5-2---|
E|--------------------3------------------|
 
e|---------------------------------------|
B|---------------------------------------|
G|------0--------0---------0---0--2-0----|
D|----4---4----4---4-----4---4--------5--|
A|-2--------0----------------------------|
E|--------------------3------------------|
 
 
[Verse 1]
 
e|---------------------------------------|---------------------------------------|
B|---------------------------------------|---------------------------------------|
G|------0--------0---------0--------0----|------0--------0---------0------2-0----|
D|----4---4----4---4-----4---4----4---4--|----4---4----4---4-----4---4--------5--|
A|-2--------0----------------------------|-2--------0----------------------------|
E|--------------------2---------3--------|--------------------2------------------|
  I wouldn't wish this on just anyone      But you seem to share my impulse
 
(Same as first half of the verse)
e|---------------------------------------|---------------------------------------|
B|---------------------------------------|---------------------------------------|
G|------0--------0---------0--------0----|------0--------0---------0------2-0----|
D|----4---4----4---4-----4---4----4---4--|----4---4----4---4-----4---4--------5--|
A|-2--------0----------------------------|-2--------0----------------------------|
E|--------------------2---------3--------|--------------------2------------------|
  I wouldn't take this from just anyone     But you seem to like the results
 
 
[Pre-Chorus]
 
e|--------------------------------------|---------------------------------2----|
B|--------------------------------------|----------------------------2---------|
G|------0---0----0---0-----0---0-2-0----|------0---0----0---0------2---2-------|
D|----4---4----4---4-----4---4-------4--|----4---4----4---4-----0--------------|
A|-2---------2---------0----------------|-2---------4--------------------------|
E|--------------------------------------|--------------------------------------|
  I
I'll connect the dots...                  But i'd rather...
 
[Chorus]
 
(No guitar in this part, but you can play this:)
 
     E5(X12) G5(X12) B5(X12) A5(X12)
P.M.  --------------------------|
e|--------------------------------|
B|--------------------------------|
G|--------------------4------2----|
D|------2------5------4------2----| (X2)
A|------2------5------2------0----|
E|------0------3------------------|
   We're creatures of habit...
 
       G5     A5     B5     D5     G5     A5
e|----------------------------------------------|
B|----------------------------------------------|
G|-------------2------4------7-------------2----|
D|------5------2------4------7------5------2----|
A|------5------0------2------5------5------0----|
E|------3---------------------------3-----------|
And nothing's ever gonna change....
 
 
[Verse 2]
(same as the first verse)
 
e|---------------------------------------|---------------------------------------|
B|---------------------------------------|---------------------------------------|
G|------0--------0---------0--------0----|------0--------0---------0------2-0----|
D|----4---4----4---4-----4---4----4---4--|----4---4----4---4-----4---4--------5--|
A|-2--------0----------------------------|-2--------0----------------------------|
E|--------------------2---------3--------|--------------------2------------------|
  I'm not amused by just anything          But under the circumstances 
 
 
e|---------------------------------------|---------------------------------------|
B|---------------------------------------|---------------------------------------|
G|------0--------0---------0--------0----|------0--------0---------0------2-0----|
D|----4---4----4---4-----4---4----4---4--|----4---4----4---4-----4---4--------5--|
A|-2--------0----------------------------|-2--------0----------------------------|
E|--------------------2---------3--------|--------------------2------------------|
  You be the recluse, I will defend you     When you've used up all your chances
 
 
[Pre-Chorus]
 
e|--------------------------------------|---------------------------------2----|
B|--------------------------------------|----------------------------2---------|
G|------0---0----0---0-----0---0-2-0----|------0---0----0---0------2---2-------|
D|----4---4----4---4-----4---4-------4--|----4---4----4---4-----0--------------|
A|-2---------2---------0----------------|-2---------4--------------------------|
E|--------------------------------------|--------------------------------------|
I'll connect the dots...                  But i'd rather...
 
 
[Chorus]
 
e|-----------------------------------------|
B|-----------------------------------------|
G|-----------------------4--4---4-2--2---2-|
D|-----2--2---2-5--5---5-4--4---4-2--2---2-| (X2)
A|-----2--2---2-5--5---5-2--2---2-0--0---0-|
E|-----0--0---0-3--3---3-------------------|
  We're creatures of habit...
 
e|------------------------------------------------------|
B|------------------------------------------------------|
G|------------2--2---2-4--4---4-7--7---7----------2--2--|
D|---5--5---5-2--2---2-4--4---4-7--7---7-5--5---5-2--2--|
A|---5--5---5-0--0---0-2--2---2-5--5---5-5--5---5-0--0--|
E|---3--3---3----------------------------3--3---3-------|
  And nothing's ever gonna change....
 
 
[Solo]
(Haven't tabbed the solo yet...)
 
Rythm guitar
     (X12)   (X12)  (X12)  (X12) (X12)   (X24)
e|----------------------------------------------|
B|----------------------------------------------|
G|-------------2------4------7-------------2----|
D|------5------2------4------7------5------2----|
A|------5------0------2------5------5------0----|
E|------3---------------------------3-----------|
 
[Chorus]
 
(Again, no guitar here, but you can play this)
      (X12)   (X12)  (X12)  (X1)
P.M.  --------------------------|
e|-----------------------------------------|-----------------------------------------|
B|-----------------------------------------|-----------------------------------------|
G|--------------------4------2-------------|-----------------------4--4---4-2--2---2-|
D|------2------5------4------2-------------|-----2--2---2-5--5---5-4--4---4-2--2---2-|
A|------2------5------2------0-------------|-----2--2---2-5--5---5-2--2---2-0--0---0-|
E|------0------3---------------------------|-----0--0---0-3--3---3-------------------|
   We're creatures of habit...                 We're chasing the rabbit...
 
     (X12)   (X12)  (X12)  (X12) (X12)   (X12) (X1)
e|------------------------------------------------|
B|------------------------------------------------|
G|-------------2------4------7-------------2----4-|
D|------5------2------4------7------5------2----4-|
A|------5------0------2------5------5------0----2-|
E|------3---------------------------3------------ |
 
 
 
[Outro]
 
e|---------------------------------------|
B|---------------------------------------|
G|------0--------0---------0---0---------|
D|----4---4----4---4-----4---4---4-------|
A|----------0----------------------5-2---|
E|--------------------3------------------|
 
e|---------------------------------------|
B|---------------------------------------|
G|------0--------0---------0---0--2-0----|
D|----4---4----4---4-----4---4--------5--|
A|-2--------0----------------------------|
E|--------------------3------------------|
            
Submit corrections

↑ Back to top | Tablatures and chords for acoustic guitar and electric guitar, ukulele, drums are parodies/interpretations of the original songs. You may use it for private study, scholarship, research or language learning purposes only