Home » S » Sheila On 7 »

Sheila On 7 - Mantan Kekasih Tabs

Artists:  A B C D E F G H I J K L M N O P Q R S T U V W X Y Z # 

Mantan Kekasih Tabs

(Version #1)
Sheila On 7
----------------------------------------------------------------------------
----------------------------------------------------------------------------
 Song 	 	 : Mantan Kekasih	
 Band	 	 : Sheila on 7
 Album		 : 507


============================================================================


  C          Am      Em     G 			    
 Mantan kekasih yang hilang datang
  C          Am      Em     G
 Ungkapkan besarnya penyesalan
     C         Am       Em    G 
 Bagaimana dia menghancurkan aku
   C     Dm           G      C
 Percayalah kau tak aku sesali
  C       Am         Em       G
 Awan hitam menghantui langkahmu
    C            Am     Em      G
 Bagaimana mungkin jika itu pilihanmu
  C       Dm       G         C    C
 Di sini tak lagi jadi rumahmu

=============================================================================
 Reff
=============================================================================
    C              Am
 Relakanlah....semua.....
    Em             G
 Berakhirlah....sudah.....
      C          Am
 Dan biarkan bintang
     Em        G
 Menuntunmu pulang

=============================================================================
 
  C           Dm       G
 Ha....a.....a.....ha.....a.....
  C           Dm       G
 Ha....a.....a.....ha.....a.....

=============================================================================
 Interlude
=============================================================================

     C                      Am                   Em           G
 |-----/8--7------------------------------------------------|
 |--------------8-----10---8------10----8-------------------|
 |-----------------9----------9-------------9--10----7------|
 |----------------------------------------------------------|
 |----------------------------------------------------------|
 |----------------------------------------------------------|

    C                      Am                   Em           G
 |-----/8--7------------------------------------------------|
 |--------------8-----10---8------10----8-------------------|
 |-----------------9----------9-------------9--10----7------|
 |----------------------------------------------------------|
 |----------------------------------------------------------|
 |----------------------------------------------------------|

    C                      Am                   Em           G
 |-----/8--7------------------------------------------------|
 |--------------8-----10---8------10----8-------------------|
 |-----------------9----------9-------------9--10----7------|
 |----------------------------------------------------------|
 |----------------------------------------------------------|
 |----------------------------------------------------------|

    C                       Am                    Em       G
 |-----/8--7------------------------------------------------|
 |--------------8------10---8------10---8-------------------|
 |------------------9----------9------------9--10--9--7--5--|
 |----------------------------------------------------------|
 |----------------------------------------------------------|
 |----------------------------------------------------------|
=============================================================================
 Interlude
=============================================================================
=============================================================================
  Reff
=============================================================================
=============================================================================
 Interlude
=============================================================================
=============================================================================

                                     ---Matur Thank You---


 / = slide up
 p = pull-off

=============================================================================
            
Submit corrections

↑ Back to top | Tablatures and chords for acoustic guitar and electric guitar, ukulele, drums are parodies/interpretations of the original songs. You may use it for private study, scholarship, research or language learning purposes only