Home » S » Sheila On 7 »

Sheila On 7 - Dan Tabs

Artists:  A B C D E F G H I J K L M N O P Q R S T U V W X Y Z # 

Dan Tabs

(ver. 1) Click to play this song!
Sheila On 7
 Rating:
4/5 (4 votes)
                E -------------------------------
B -------2----3-----3^2----------
G -----2----2---2-------2--------
D ---2------------2-------2------
A -0-----------------------------
E -------------------------------


Intro :  A  Asus  A  Asus (3x)

D           C#m                Bm
Dan....bila esok...datang kembali
           A
Seperti sedia kala dimana kau bisa bercanda
D                C#m           Bm
Dan...perlahan kaupun lupakan aku
           A                                      D
Mimpi burukmu...dimana t'lah ku tancapkan duri tajam
         C#m                Bm   E
Kaupun menangis...menangis sedih
        F#m  E
Maafkan aku

D                 C#m              Bm
Dan...bukan maksudku...bukan inginku
     A                                     D
Melukaimu sadarkan kau di sini kupun terluka
      C#m          Bm      E
Melupakanmu...menepikanmu
         F#m   E
Maafkan aku....

         E               A
Reff :   Lupakan saja diriku
----                  C#m
         Bila itu bisa membuatmu
                          Bm
         Kembali bersinar dan berpijar
                  G         E
         Seperti dulu kala

         E              A
         Caci maki saja diriku
                      C#m
         Bila itu bisa membuatmu
                          Bm
         Kembali bersinar dan berpijar
                   G       E
         Seperti dulu kala

Int :  A  Asus  A  Asus (2x)

Back to : Reff

Int :  A  E  F#m  D (2x)

Back to : Reff

Coda :  G  E  G  E  A

      D    C#m  Bm    A      E     F#m       G
e:|---2-----4----2----0------0-------2-------3---------------------|
B:|---3-----5----3----2------0-------2-------3---------------------|
G:|---2-----6----4----2------1-------2-------0---------------------|
D:|---0-----6----4----2------2-------4-------0---------------------|
A:|---------4----2----0------2-------4-------2---------------------|
E:|--------------------------0-------2-------3---------------------|

- end of tab
            
Submit corrections

↑ Back to top | Tablatures and chords for acoustic guitar and electric guitar, ukulele, drums are parodies/interpretations of the original songs. You may use it for private study, scholarship, research or language learning purposes only