Home » S » She And Him »

She And Him - Sweet Darlin Bass

Artists:  A B C D E F G H I J K L M N O P Q R S T U V W X Y Z # 

Sweet Darlin Bass

(ver. 1) Click to play this song!
She And Him
 Rating:
4/5 (4 votes)
                ++++++++++++++++++++++++++++
| She & Him- Sweet Darlin' |
++++++++++++++++++++++++++++


"Sweet darlin come hold me just a little bit longer..."

Tuning: Standard EADG


Intro
1.
G|-----------------------------------------02-44444442-00000024-|
D|--------------------------------------------------------------|
A|-3-3-2-2-0-0-------------5-5-5-5-5-5-5-5----------------------|
E|-------------3-3-1-1-0-0--------------------------------------|

Verse
"When I was a little bit younger..."
2.
G|--------------------------------------------|
D|--------------------------------------------|
A|-3~--3-2~----0~--0-------------------33333x-|
E|-------------------3~----1~--1-1~-----------|

"Now Im a little bit older..."
3.
G|-------------------------------------------------|
D|-------------------------------------------------|
A|-3~--3-2~----0~--0-------------------------------|
E|-------------------3~----1~--1-1~----3~--3-3~----|

Chorus
"Sweet darlin..."
4.
G|---------------------------------------------------------------------------|
D|-----------------3-3-3-3-3-3-3-3-----------------3-3-3-3-3-3-3-3-3-3-3-555-|
A|-3-3-3-3-5-5-5-5-----------------3-3-3-3-5-5-5-5---------------------------|
E|---------------------------------------------------------------------------|

Verse
"When things were a little bit clearer..."
5.
G|--------------------------------------------|
D|--------------------------------------------|
A|-3~--3-2~----0~--0-------------------33333x-|
E|-------------------3~----1~--1-1~-----------|

"Now that I know what I want..."
6.
G|-------------------------------------------------|
D|-------------------------------------------------|
A|-3~--3-2~----0~--0-------------------------------|
E|-------------------3~----1~--1-1~----3~--3-3~----|

Chorus
"Sweet darlin..."
7.
G|-------------------------------------------------------------------------|
D|-----------------3-3-3-3-6-6-6-6-----------------3-3-3-3-6-6-6-6-6-6-6-6-|
A|-3-3-3-3-5-5-5-5-----------------3-3-3-3-5-5-5-5-------------------------|
E|-------------------------------------------------------------------------|

Bridge
8.
G|---------------------------------------------------------|
D|-----------------------------------------5-5-5-5-5-5-5-5-|
A|-3-3-2-2-0-0-------------5-5-5-5-5-5-5-5-----------------|
E|-------------3-3-1-1-0-0---------------------------------|

Chorus
"Sweet darlin..."
9.
G|-----------------------------------------|
D|---------------------3~--------6~--------|
A|-3~--------5~----------------------------|
E|-----------------------------------------|

"Sweet darlin..."
10.
G|-----------------------------------------------------------------|
D|-----------------3-3-3-3-6-6-6-6-----------------3-3-3-3-6-6-6-6-|
A|-3-3-3-3-5-5-5-5-----------------3-3-3-3-5-5-5-5-----------------|--Until fades out
E|-----------------------------------------------------------------|

Please rate!

Lyrics:

When I was a little bit younger 
The strain I was under could make me cry 
Now I’m a little bit older, 
A little bit bolder 
Never so shy 

Sweet darlin’, come hold me, 
Just a little bit longer now 
Sweet darlin’, come hold me, 
Just a little bit longer now 

When things were a little bit clearer 
When you got nearer 
I shied from your touch 
Now that I know what I want, see, 
I think that it haunts me, 
I want you too much 



+++++++++++++++++++++++++++++++++
| RaiLeff                       |
+++++++++++++++++++++++++++++++++
            
Submit corrections

↑ Back to top | Tablatures and chords for acoustic guitar and electric guitar, ukulele, drums are parodies/interpretations of the original songs. You may use it for private study, scholarship, research or language learning purposes only