» » »

She And Him - Sweet Darlin Tabs

Artists:  A B C D E F G H I J K L M N O P Q R S T U V W X Y Z # 

Sweet Darlin Tabs

(ver. 1) Click to play this song!
She And Him
 Rating:
3.6/5 (7 votes)

 Sweet Darlin lessons Tabs too difficult? Try these video lessons and learn fast
 
                Tuning: Standard

It just repeats the same stuff throughout the song here it goes (side note: this is the 
guitar NOT the keyboards transitioned for guitar)

Verse
|-0-0-0-0-0-0-0-0-0-0-0-0-0-0-0-0-|
|-1-1-1-1-1-1-1-1-1-1-1-1-1-1-1-1-|
|-0-0-0-0-0-0-0-0-2-2-2-2-0-0-0-0-|
|-2-2-2-2-0-0-0-0-2-2-2-2-0-0-0-0-|
|-3-3-3-3-2-2-2-2-0-0-0-0-2-2-2-2-|
|---------3-3-3-3---------3-3-3-3-|

|-1-1-1-1-1-1-1-1-10-10-10-10-10-10-10-10-|
|-1-1-1-1-1-1-1-1-10-10-10-10-10-10-10-10-|
|-2-2-2-2-1-1-1-1-10-10-10-10-10-10-10-10-|
|-3-3-3-3-3-3-3-3-12-12-12-12-12-12-12-12-|
|-3-3-3-3-3-3-3-3-12-12-12-12-12-12-12-12-|
|-1-1-1-1-1-1-1-1-10-10-10-10-10-10-10-10-|

|-0-0-0-0-0-0-0-0-0-0-0-0-0-0-0-0-|
|-1-1-1-1-1-1-1-1-1-1-1-1-1-1-1-1-|
|-0-0-0-0-0-0-0-0-2-2-2-2-0-0-0-0-|
|-2-2-2-2-0-0-0-0-2-2-2-2-0-0-0-0-|
|-3-3-3-3-2-2-2-2-0-0-0-0-2-2-2-2-|
|---------3-3-3-3---------3-3-3-3-|

|-1-1-1-1-1-1-1-1-1-1-1-1-1-1-1-1-|
|-1-1-1-1-1-1-1-1-0-0-0-0-0-0-0-0-|
|-2-2-2-2-1-1-1-1-0-0-0-0-0-0-0-0-|
|-3-3-3-3-3-3-3-3-0-0-0-0-0-0-0-0-|
|-3-3-3-3-3-3-3-3-2-2-2-2-2-2-2-2-|
|-1-1-1-1-1-1-1-1-3-3-3-3-3-3-3-3-|

Chorus
|-0-0-0-0-0-0-0-0-0-0-0-0-0-0-0-0-0-0-0-0-0-0-0-0-2-2-2-2-2-2-2-2-|
|-2-2-2-2-2-2-2-2-5-5-5-5-5-5-5-5-2-2-2-2-2-2-2-2-3-3-3-3-3-3-3-3-|
|-0-0-0-0-0-0-0-0-0-0-0-0-0-0-0-0-0-0-0-0-0-0-0-0-4-4-4-4-4-4-4-4-|
|-3-3-3-3-3-3-3-3-6-6-6-6-6-6-6-6-3-3-3-3-3-3-3-3-4-4-4-4-4-4-4-4-|
|-4-4-4-4-4-4-4-4-7-7-7-7-7-7-7-7-4-4-4-4-4-4-4-4-2-2-2-2-2-2-2-2-|
|-----------------------------------------------------------------|

|-0-0-0-0-0-0-0-0-0-0-0-0-0-0-0-0-0-0-0-0-0-0-0-0-2-2-2-2-2-2-2-2-|
|-2-2-2-2-2-2-2-2-5-5-5-5-5-5-5-5-2-2-2-2-2-2-2-2-3-3-3-3-3-3-3-3-|
|-0-0-0-0-0-0-0-0-0-0-0-0-0-0-0-0-0-0-0-0-0-0-0-0-4-4-4-4-4-4-4-4-|
|-3-3-3-3-3-3-3-3-6-6-6-6-6-6-6-6-3-3-3-3-3-3-3-3-4-4-4-4-4-4-4-4-|
|-4-4-4-4-4-4-4-4-7-7-7-7-7-7-7-7-4-4-4-4-4-4-4-4-2-2-2-2-2-2-2-2-|
|-----------------------------------------------------------------|

There you go have fun!
            
Submit corrections


        Sweet Darlin lessons Hard to play? Try these video lessons and learn fast Sweet Darlin lessons
        
↑ Back to top | Tablatures and chords for acoustic guitar and electric guitar, ukulele, drums are parodies/interpretations of the original songs. You may use it for private study, scholarship, research or language learning purposes only