Home » S » She And Him »

She And Him - Why Do You Let Me Stay Here Tabs

Artists:  A B C D E F G H I J K L M N O P Q R S T U V W X Y Z # 

Why Do You Let Me Stay Here Tabs

(ver. 1) Click to play this song!
She And Him
For some reason it wouldn't let me update my previous tab so here's a new one

Tuning: Standard

Intro
|-0-0-0-0-0-0-0-0-0-0-0-0-0-0-0-0-|
|-1-1-1-1-1-1-1-1-1-1-1-1-4-4-3-3-|
|-0-0-0-0-0-0-0-0-2-2-2-2-0-0-0-0-|
|-2-2-2-2-2-2-2-2-2-2-2-2-5-5-4-4-|
|-3-3-3-3-1-1-1-1-0-0-0-0-6-6-5-5-|
|---------------------------------|

|-0-0-0-0-0-0-0-0-0-0-0-0-0-0-0-0-|
|-1-1-1-1-1-1-1-1-1-1-1-1-4-4-3-3-|
|-0-0-0-0-0-0-0-0-2-2-2-2-0-0-0-0-|
|-2-2-2-2-2-2-2-2-2-2-2-2-5-5-4-4-|
|-3-3-3-3-1-1-1-1-0-0-0-0-6-6-5-5-|
|---------------------------------|

Verse
|-0-0-0-0-0-0-0-0-0-0-0-0-0-0-0-0-|
|-1-1-1-1-1-1-1-1-1-1-1-1-4-4-3-3-|
|-0-0-0-0-0-0-0-0-2-2-2-2-0-0-0-0-|
|-2-2-2-2-2-2-2-2-2-2-2-2-5-5-4-4-|
|-3-3-3-3-1-1-1-1-0-0-0-0-6-6-5-5-|
|---------------------------------|

All By Myself
|-0-0-0-0-0-0-0-0-0-0-0-0-0-0-0-0-|
|-1-1-1-1-1-1-1-1-1-1-1-1-4-4-3-3-|
|-0-0-0-0-0-0-0-0-2-2-2-2-0-0-0-0-|
|-2-2-2-2-2-2-2-2-2-2-2-2-5-5-4-4-|
|-3-3-3-3-1-1-1-1-0-0-0-0-6-6-5-5-|
|---------------------------------|

Why Don't You Come and Play Here
|-0-0-0-0-0-0-0-0-1-1-1-1-0-0-0-0-|
|-1-1-1-1-1-1-1-1-1-1-1-1-4-4-4-4-|
|-0-0-0-0-0-0-0-0-2-2-2-2-0-0-0-0-|
|-2-2-2-2-2-2-2-2-3-3-3-3-5-5-5-5-|
|-3-3-3-3-1-1-1-1-3-3-3-3-6-6-6-6-|
|-----------------1-1-1-1---------|

I'm Just Sitting On a Shelf
|-0-0-0-0-0-0-0-0-|
|-3-3-3-3-3-3-3-3-|
|-0-0-0-0-0-0-0-0-|
|-4-4-4-4-4-4-4-4-|
|-5-5-5-5-5-5-5-5-|
|-----------------|

The rhythm guitar plays that throughout the whole song

Solo
|-----------------------------------------------------------------|
|-8-9-8-9-8--------------------------------------------9p7h9------|
|----------9-----9-------------9-9---9-9-----9--------------------|
|------------5/7---7-6----7h9------8-----8-7---7-6--7h9-----------|
|----------------------7h9-----------------------------------9/12-|
|-----------------------------------------------------------------|

|---------------------------------------------------------------|
|---------------------13--13--13----------12v-12v-12v-12v12v12v-|
|------------13-13-13------------16-16-16-----------------------|
|-15--15--15----------------------------------------------------|
|---------------------------------------------------------------|
|---------------------------------------------------------------|

|--------------------------------------------------|
|-13v-13v-13v-13v13v13v-14v-14v-14v-14v14v14v-15v~-|
|--------------------------------------------------|
|--------------------------------------------------|
|--------------------------------------------------|
|--------------------------------------------------|

there now hopefully this one gets accepted 'cause i'm 97% sure at least that this is correct
            
Submit corrections

↑ Back to top | Tablatures and chords for acoustic guitar and electric guitar, ukulele, drums are parodies/interpretations of the original songs. You may use it for private study, scholarship, research or language learning purposes only