» » »

Shakira - Que Vuelvas Tabs

Artists:  A B C D E F G H I J K L M N O P Q R S T U V W X Y Z # 

Que Vuelvas Tabs

(ver. 1) Click to play this song!
Shakira
 Rating:
4/5 (4 votes)

 Que Vuelvas lessons Tabs too difficult? Try these video lessons and learn fast
 
                


This is only the intro

E------------------------------------------------------------------------------------
B-----7-----------------7-----7-----------------7-----7----------------7-----7-------
G--------7-----9--7--------------7-----9--7--------------7-----9--7-------------7----
D--0--------0--------0-----0--------0--------0-----0--------0--------0----0--------0-
A------------------------------------------------------------------------------------
E------------------------------------------------------------------------------------


E------------------------------------------------------------------------------------
B-----------7-----7-----------------7------------------------------------------------
G--9--7--------------7-----9--7------------------------------------------------------
D--------0-----0--------0--------0---------------------------------------------------
A------------------------------------------------------------------------------------
E------------------------------------------------------------------------------------
            
Submit corrections


        Que Vuelvas lessons Hard to play? Try these video lessons and learn fast Que Vuelvas lessons
        
↑ Back to top | Tablatures and chords for acoustic guitar and electric guitar, ukulele, drums are parodies/interpretations of the original songs. You may use it for private study, scholarship, research or language learning purposes only