» » »

Shakira - Hey You Tabs

Artists:  A B C D E F G H I J K L M N O P Q R S T U V W X Y Z # 

Hey You Tabs

(ver. 1) Click to play this song!
Shakira
 Rating:
4.1/5 (20 votes)

 Hey You lessons Tabs too difficult? Try these video lessons and learn fast
 
                **CAPO 1**

Intro:

e|------------------------------------------------|
B|------------------------------------------------|
G|------------------------------------------------|
D|------------------------------------------------|
A|-0-3--4--5------------0-3--4--5-----------------|
E|------------------------------------------------|

e|---------------------------------------------------------------------------|
B|---------------------------------------------------------------------------|
G|--2--2---5--5----------4------2--2---5--5----------4--4--------------------|
D|--2--2---5--5---3--3---4--2---2--2---5--5---3--3---4--4--------------------|
A|--0--0---3--3---3--3---2--2---0--0---3--3---3--3---2--2--------------------|
E|----------------1--1------0-----------------1--1---------------------------|

e|---------------------------------------------------------------------------|
B|---------------------------------------------------------------------------|
G|--2--2---5--5----------4------2--2---5--5--------------4-------------------|
D|--2--2---5--5---3--3---4--2---2--2---5--5---3----------4-------------------|
A|--0--0---3--3---3--3---2--2---0--0---3--3---3----------2-------------------|
E|----------------1--1------0-----------------1------------------------------|

"I'd like to be. The kind of dream you'd never share..."
e|---------------------------------------------------------------------------|
B|---------------------------------------------------------------------------|
G|---------------------------------------------------------------------------|
D|---------------------------------------------------------------------------|  X2
A|--0------3-------------2---------------------------------------------------|
E|-------------1------0------------------------------------------------------|

"Your shaving cream, your razor blade..."
e|----5------------3-------------2-------------------------------------------|
B|----5------------5-------------3-------------------------------------------|
G|----5------------5-------------4------4/5\4--------------------------------|
D|----7------------5-------------4------4/5\4--------------------------------|  X2
A|----7------------3-------------2------2/3\2--------------------------------|
E|----5------------3-------------2-------------------------------------------|

G
I'd like to be
                                        Dm
The only thing on Earth that makes you cry
           Am
The only thing that makes you happy
G
Soon you will see
                            F
That no one else but me can take you this high

And soon you'll make your last name mine

CHORUS:
C    Em
Hey you
    Dm        G
I'm making an offer that
Em      C    Dm      E
No one could ever refuse
        Am                F
Don't play the adamant
      C               G
Don't be so arrogant
A#                 E
Can't you see I've fallen for ya?
C    Em
Hey you
    Dm        G
I'm making an offer that
Em      C    Dm         E
No one would dare to refuse
        Am                F
Don't play the adamant
      C               G
Don't be so arrogant
A#                 E
Let me in. Let me be your muse tonight

"Tonight"
e|---------------------------------------------------------------------------|
B|---------------------------------------------------------------------------|
G|--2--2---5--5----------4------2--2---5--5----------4-----------------------|
D|--2--2---5--5---3--3---4--2---2--2---5--5---3--3---4--2--------------------|
A|--0--0---3--3---3--3---2--2---0--0---3--3---3--3---2--2--------------------|
E|----------------1--1------0-----------------1--1------0--------------------|

e|---------------------------------------------------------------------------|
B|---------------------------------------------------------------------------|
G|--2--2---5--5----------4------2--2---5--5------9--10-9--7------------------|
D|--2--2---5--5---3--3---4--2---2--2---5--5-----------------10--9------------|
A|--0--0---3--3---3--3---2--2---0--0---3--3----------------------------------|
E|----------------1--1------0------------------------------------------------|

"I'd like to be. The first white hair upon your head..."
e|---------------------------------------------------------------------------|
B|----10-----------------10--------------------------------------------------|
G|-------9---10---9---------9---9--10-9--7-----------------------------------|
D|-7------------------7--------------------10--9-----------------------------|
A|---------------------------------------------------------------------------|
E|---------------------------------------------------------------------------|

"I'll cook for free, I'll make your bed..."
e|----5------------3-------------2-------------------------------------------|
B|----5------------5-------------3-------------------------------------------|
G|----5------------5-------------4------4/5\4--------------------------------|
D|----7------------5-------------4------4/5\4--------------------------------|  X2
A|----7------------3-------------2------2/3\2--------------------------------|
E|----5------------3-------------2-------------------------------------------|

G
I'd like to be
                         Dm
The owner of the zipper on your jeans
           Am
And that thing that makes you happy
G
I'd like to be the beginning, the end
    F
And the inbetween. And be your slave. And be your Queen

CHORUS:
C    Em
Hey you
    Dm        G
I'm making an offer that
Em      C    Dm      E
No one could ever refuse
        Am                F
Don't play the adamant
      C               G
Don't be so arrogant
A#                 E
Can't you see I've fallen for ya?
C    Em
Hey you
    Dm        G
I'm making an offer that
Em      C    Dm         E
No one would dare to refuse
        Am                F
Don't play the adamant
      C               G
Don't be so arrogant
A#                 E
Let me in. Let me be your muse tonight

Tonight...
e|--12---10-------------12---10----------------------------------------------|
B|------------13---12-------------13---12------------------------------------|
G|---------------------------------------------------------------------------|
D|---------------------------------------------------------------------------|
A|---------------------------------------------------------------------------|
E|---------------------------------------------------------------------------|

Tonight, toni-i-ight
e|---------------------------------------------------------------------------|
B|---------------------------------------------------------------------------|
G|--2--2---5--5----------4------2--2---5--5----------4-----------------------|
D|--2--2---5--5---3--3---4--2---2--2---5--5---3--3---4--2--------------------|
A|--0--0---3--3---3--3---2--2---0--0---3--3---3--3---2--2--------------------|
E|----------------1--1------0-----------------1--1------0--------------------|

e|----5------------3-------------2-------------------------------------------|
B|----5------------5-------------3-------------------------------------------|
G|----5------------5-------------4------4/5\4--------------------------------|
D|----7------------5-------------4------4/5\4--------------------------------|  X2
A|----7------------3-------------2------2/3\2--------------------------------|
E|----5------------3-------------2-------------------------------------------|

e|------------------------------12-----13-----14-----15----------------------|
B|---------------------------------------------------------------------------|
G|----------9--9----------9--9-----------------------------------------------|
D|--7--7----9--9---7--7---9--9------7------5------3--------------------------|
A|--7--7----7--7---7--7---7--7------7------5------3--------------------------|
E|--5--5-----------5--5-------------5------3------1--------------------------|

C    Em
Hey you
    Dm        G
I'm making an offer that
Em      C    Dm      E
No one could ever refuse
        Am                F
Don't play the adamant
      C               G
Don't be so arrogant
A#                 E
Can't you see I've fallen for ya?
C    Em
Hey you
    Dm        G
I'm making an offer that
Em      C    Dm         E
No one would dare to refuse
        Am                F
Don't play the adamant
      C               G
Don't be so arrogant
A#                 E
Let me in. Let me be your muse tonight

(REPEAT CHORUS CHORDS)

Ooooh ...            
Submit corrections


        Hey You lessons Hard to play? Try these video lessons and learn fast Hey You lessons
        
↑ Back to top | Tablatures and chords for acoustic guitar and electric guitar, ukulele, drums are parodies/interpretations of the original songs. You may use it for private study, scholarship, research or language learning purposes only