» » »

Shakira - Fool Tabs

Artists:  A B C D E F G H I J K L M N O P Q R S T U V W X Y Z # 

Fool Tabs

(ver. 1) Click to play this song!
Shakira
 Rating:
4/5 (4 votes)

 Fool lessons Tabs too difficult? Try these video lessons and learn fast
 
                palm mute this chord 
e---------------------------------------------------------------------------------------------
B---8--9--8--6--4--3--4--3---1----------------------------------------------------------------
G--------------------------------------------------------------------8--------------------8-8-
D-----------------------------------6-6-6-6-6-6-6-6-6-6-6-6----------8--------------------8-8-
A-----------------------------------6-6-6-6-6-6-6-6-6-6-6-6----------6----12-10------8-6--6-6-
E-----------------------------------4-4-4-4-4-4-4-4-4-4-4-4-----------------------------------


you will have to listen for timing do this twice but on the second time instead of the Em chord
play a G#
e---------------------------------------------------------------------------------------------
B---------------------------------------------------------------------------------------------
G--8--------10--------8--------13------8------10------8---------------------------------------
D--8--------10--------8--------13------8------10------8------------3-3-3-3---2-2-2-2----------
A--6--------8---------6--------11------6------8-------6------------3-3-3-3---2-2-2-2---x2-----
E---------------------------------------------------------------0--1-1-1-1---0-0-0-0----------


here is the chorus				on the 4th time play this
e-------------------------------------------------------------------------------------------------------
B-------------------------------------------------------------------------------------------------------
G-8-8--x--3-3-----------------------8-8--x--3-3--------------------------------------------8--8-8-------
D-8-8--x--3-3-x--3-------x---6-6----8-8--x--3-3--x--3-3--x-x-x-x-6-6-6-6-6-6-6-6-6-6-6-6---8--8-8-------
A-6-6--x--1-1-x--3-------x---6-6----6-6--x--1-1--x--3-3--x-x-x-x-6-6-6-6-6-6-6-6-6-6-6-6---6--6-6-------
E-------------x--1-1-3-4-x---4-4--------------x--1-1--x-x-x-x--4-4-4-4-4-4-4-4-4-4-4-4------------------


you will have to listen for timing
e---------------------------------------------------------------------------------------------
B---------------------------------------------------------------------------------------------
G--8--------10--------8--------10------8------10------8---------------------------------------
D--8--------10--------8--------10------8------10------8------------3-3-3-3---2-2-2-2----------
A--6--------8---------6--------8-------6------8-------6------------3-3-3-3---2-2-2-2---x2-----
E---------------------------------------------------------------0--1-1-1-1---0-0-0-0----------


here is the chorus				on the 4th time play this
e-------------------------------------------------------------------------------------------------------
B-------------------------------------------------------------------------------------------------------
G-8-8--x--3-3----------------------------8-8--x--3-3---------------------------------------------8--8-8-
D-8-8--x--3-3-x--3-3--x--x--x--x--6-6----8-8--x--3-3--x--3-3--x-x-x-x--6-6-6-6-6-6-6-6-6-6-6-6---8--8-8-
A-6-6--x--1-1-x--3-3--x--x--x--x--6-6----6-6--x--1-1--x--3-3--x-x-x-x--6-6-6-6-6-6-6-6-6-6-6-6---6--6-6-
E-------------x--1-1--x--x--x--x--4-4-x3--------------x--1-1--x-x-x-x--4-4-4-4-4-4-4-4-4-4-4-4----------



here's the lil guitar solo
e--------------------------------------------------------------------------------------------
B--------------------------------------------------------------------------------------------
G--------------------------------------------------------------------------------------------
D--3-5-6-5---3-5-6-5---3-5-6-5---6/8-8-6--5h6--3----3-5-6-5-3-1--------------3-3-3-3---------
A----------------------------------------------------------------3-1---------3-3-3-3---------
E--------------------------------------------------------------------3---3---1-1-1-1---------




here is the chorus again			on the 4th time play this		Play the
chorus twice 
e---------------------------------------------------------------------------------------------
B---------------------------------------------------------------------------------------------
G-8-8--x--3-3----------------------------8-8--x--3-3------------------------------------------
D-8-8--x--3-3-x--3-3--x--x--x--x--6-6----8-8--x--3-3--x--3-3--x-x-x-x--6-6-6-6-6-6-6-6-6-6-6-6
A-6-6--x--1-1-x--3-3--x--x--x--x--6-6----6-6--x--1-1--x--3-3--x-x-x-x--6-6-6-6-6-6-6-6-6-6-6-6
E-------------x--1-1--x--x--x--x--4-4-x3--------------x--1-1--x-x-x-x--4-4-4-4-4-4-4-4-4-4-4-4


then these chords at the end of the song "the wind down"			
e---------------------------------------------------------------------------------------------
B---------------------------------------------------------------------------------------------
G-8-----8-8--10-----10-10--13------13-13---15-------8----------------------------------------------------------------
D-8-----8-8--10-----10-10--13------13-13---15-------8----------------------------------------------------------------
A-6-----6-6--8------8--8---11------11-11---13-------6-------------------------------------------------------------
E---------------------------------------------------------------------------------------------
            
Submit corrections


        Fool lessons Hard to play? Try these video lessons and learn fast Fool lessons
        
↑ Back to top | Tablatures and chords for acoustic guitar and electric guitar, ukulele, drums are parodies/interpretations of the original songs. You may use it for private study, scholarship, research or language learning purposes only