» » »

Shadows Fall - The Idiot Box Tabs

Artists:  A B C D E F G H I J K L M N O P Q R S T U V W X Y Z # 

The Idiot Box Tabs

(ver. 2) Click to play this song!
Shadows Fall
 Rating:
4/5 (4 votes)

 The Idiot Box lessons Tabs too difficult? Try these video lessons and learn fast
 
                
Tuning: (low to high) C G C F A D

. = palm mute
\\\ = pick scr*pe
{} = repeat only this part
() = play as instructed


Intro:

D -------------------------	x 2
A -------------------------
F -------------------------
C -------------------------
G -2----3----8----2--22-22-
C -2----3----8----2--22-22-
                     .. ..

D -----------------------		x 1
A -----------------------
F -----------------------
C -----------------------
G -2----3----8----2--\\\- 
C -2----3----8----2--\\\-


D --------------------------------------
A --------------------------------------
F --------------------------------------
C --------------------------------------
G -2----3----8----2----2-------22-------
C -2----3----8----2----2-2-2-2-22-2-2-2-



Verse 1:

D -------------------------------		x 4
A -------------------------------
F -------------------------------
C -------------------------------
G -2-222222-21-22222-22-22-22-22-
C -2-222222----22222-22-22-22-22-
     ......    ..... .. .. .. ..


Bridge:

D -----------------------------------		x 2
A -----------------------------------
F -----------------------------------
C -----------------------------------
G -22-22-22-22-22-2-22-2-2-222-2-222-
C -22-22-22-22-22-2-22-2-2-222-2-222-
                    .. . . ... . ...
                                 (2nd time miss the 
                                 last three out)




Chorus

D -------------------------------			x 2
A -------------------------------
F -------------------------------
C -------------------------------
G –{2-22323-232-210}-------------
C –{2-22323-----210}-22-22-22-22-
    . .....          .. .. .. ..
    Repeat x 3       (4th time only)
                     miss out 2nd time)




Play instead:


Fill 1:

D -------------------------------------
A -----------------3354----112---------
F ---------------------4432------------
C -------------------------------------
G -22-22-2-2-2-2-2------------4-4-4-53-
C -22-22-2-2-2-2-2------------4-4-4-53-
   .. .. . . . . .


Repeat Verse 1

Repeat Bridge

Repeat Chorus


D -------------------------------			x 2
A -------------------------------
F -------------------------------
C -------------------------------
G –{2-22323-232-210}-------------
C –{2-22323-----210}-22-22-22-22-
    . .....          .. .. .. ..
    Repeat x 3       (4th time only,
                     2nd time play below)


Fill 2:

D ----------------------------------------------------------
A ----------------------------------------------------------
F ----------------------------------------------------------
C --------------------------------------------------3-------
G -33-33-3-3-3-3-3-22-2-2-2-2-2-2-2-33-33-3-3-3-3-3--213430-
C -33-33-3-3-3-3-3-22-2-2-2-2-2-2-2-33-33-3-3-3-3-3---------
   .. .. . . . . . .. . . . . . . . .. .. . . . . .
D ----------------------------------------------------------
A ----------------------------------------------------------
F ----------------------------------------------------------
C ---------------------------------------------------34-34--
G -33-33-3-3-3-3-3-22-2-2-2-2-2-2-2-33-33-3-3-3-3-3----4--4-
C -33-33-3-3-3-3-3-22-2-2-2-2-2-2-2-33-33-3-3-3-3-3---------
   .. .. . . . . . .. . . . . . . . .. .. . . . . .


D -----------------------------------------------------		x 2
A -----------------------------------------------------
F -----------------------------------------------------
C -----------------------------------------------------
G -45455454-555545455454-555545455454-5555-454-55553-5-
C -45455454-555545455454-555545455454-5555-454-55553-5-
      ..    ....   ..    ....   ..    ....     ....


Guitar for Solo:

D ------------------------------------
A ------------------------------------
F ------------------------------------
C ------------------------------------
G -2----3----8----2--22-22---(2-2222)-
C -2----3----8----2--22-22---(2-2222)-
                     .. ..      ....
                              (2nd time 
                              only)


D ------------------------------------------------------------------------
A ------------------------------------------------------------------------
F ------------------------------------------------------------------------
C ------------------------------------------------------------------------
G -2-4398-4-333333-2-43983-3-566-2-4398-4-3333333101010101010101010101011-
C -2-4398-4-333333-2-43983-3-566-2-4398-4-3333333101010101010101010101011-
             .....         .               ...... . . . . . . . . . . .


 
Outro:

D ------------------------------------	x 2
A ------------------------------------
F ------------------------------------
C ------------------------------------
G -2----3----8----22-22-22-22---------
C -2----3----8----22-22-22-22---------


D ---------------------------			x 2
A ---------------------------
F ---------------------------
C ---------------------------
G -43-43-334334-43-43-334334-
C -43-43-334334-43-43-334334-
   .. .. ...... .. .. ......


Thanks to Century Media for distributing this record, its awesome, 
and Shadows Fall for making such a brilliant album. Enjoy! 
Comments are welcome and please rate.


systemaregods (Ashley Jackson)
            
Submit corrections


        The Idiot Box lessons Hard to play? Try these video lessons and learn fast The Idiot Box lessons
        
↑ Back to top | Tablatures and chords for acoustic guitar and electric guitar, ukulele, drums are parodies/interpretations of the original songs. You may use it for private study, scholarship, research or language learning purposes only