» » »

Shadows Fall - Prelude To Disaster Tabs

Artists:  A B C D E F G H I J K L M N O P Q R S T U V W X Y Z # 

Prelude To Disaster Tabs

(ver. 1) Click to play this song!
Shadows Fall
 Rating:
4/5 (4 votes)

 Prelude To Disaster lessons Tabs too difficult? Try these video lessons and learn fast
 
                Shadows Fall
Prelude to Disaster
The Art of Balance

rythm guitar
e: -------------------------------------------
B: ------------9-------10-------7---------6---
G: --9---9---9---9---9------7-----7---6-----6-
D: ----9-----------9----------7---------6-----
A: 7-------7--------------5---------4---------
E: -------------------------------------------

lead guitar
e: -----------------------------------------------------
B: 7---5-7-8-7-5-5---7---7---5-7/10-8-7-5---5-7p5-------
G: -----------------------------------------------7-6-7-    2x
D: -----------------------------------------------------
A: -----------------------------------------------------
E: -----------------------------------------------------

e: -----------------------------
B: ------5-------5-------5/7-7-5
G: 7-6-7---7-6-7---7-6-7--------
D: -----------------------------
A: ----------------------------- 
E: -----------------------------

e: ------------------------------------17-15-14-12-14-17-15-14-12-14-12-14--15----
B: 12~~~12-14-15-14-15-17~-15-14-14/12-----------------------------------------17~
G: -------------------------------------------------------------------------------
D: -------------------------------------------------------------------------------
A: -------------------------------------------------------------------------------
E: -------------------------------------------------------------------------------

e: 19--21--22~--19h21p19-17h19-17/15h17-17-15-14-12-14-17-15-14-12-14-12-14--15----
B: -----------------------------------------------------------------------------15~
G: --------------------------------------------------------------------------------
D: --------------------------------------------------------------------------------
A: -------------------------------------------------------------------------------- 
E: --------------------------------------------------------------------------------
            
Submit corrections


        Prelude To Disaster lessons Hard to play? Try these video lessons and learn fast Prelude To Disaster lessons
        
↑ Back to top | Tablatures and chords for acoustic guitar and electric guitar, ukulele, drums are parodies/interpretations of the original songs. You may use it for private study, scholarship, research or language learning purposes only