» » »

Shadows Fall - Lead Me Home Tabs

Artists:  A B C D E F G H I J K L M N O P Q R S T U V W X Y Z # 

Lead Me Home Tabs

(ver. 1) Click to play this song!
Shadows Fall
 Rating:
4/5 (4 votes)

 Lead Me Home lessons Tabs too difficult? Try these video lessons and learn fast
 
                Band - Shadows Fall
Song - Lead Me Home

 Intro/Verse:
			       (Guitar 1)
|-2------2-----3-|-----3-----3-----|-2------2-----3-|-----3-----3-----|
|----0-----0-----|-0-----0-----0---|----0-----0-----|-0-----0-----0---|
|----------------|-----------------|----------------|-----------------|
|-2----2-----2---|---2-----2-----2-|-2----2-----2---|---2-----2-----2-|
|----------------|-----------------|----------------|-----------------|
|----------------|-----------------|----------------|-----------------|

|----------------|-----------------|----------------|-----------------|
|-3------3-----5-|-----5-----5-----|-3------3-----5-|-----5-----5-----|
|----0-----0-----|-0-----0-----0---|----0-----0-----|-0-----0-----0---|
|----------------|-----------------|----------------|-----------------|
|-3----3-----3---|---3-----3-----3-|-3----3-----3---|---3-----3-----3-|
|----------------|-----------------|----------------|-----------------|

|-2------2-----3-|-----3-----3-----|-2------2-----3-|-----3-----5-----|
|----0-----0-----|-0-----0-----0---|----0-----0-----|-0-----0-----0---|
|----------------|-----------------|----------------|-----------------|
|-2----2-----2---|---2-----2-----2-|-2----2-----2---|---2-----2-0---0-|
|----------------|-----------------|----------------|-----------------|
|----------------|-----------------|----------------|-----------------|

|----------------|-----------------|----------------|-----------------|
|-3------3-----5-|-----5-----5-----|-3------3-----5-|-----5-----5-----|
|----0-----0-----|-0-----0-----0---|----0-----0-----|-0-----0-----0---|
|----------------|-----------------|----------------|-----------------|
|-3----3-----3---|---3-----3-----3-|-3----3-----3---|---3-----3-----3-|
|----------------|-----------------|----------------|-----------------|

|-2------2-----3-|-----3-----3-----|-5-----3-----2---|---3------3p==2---0---|
|----0-----0-----|-0-----0-----0---|---0-----0-----0-|-----0----------------|
|----------------|-----------------|-----------------|----------------------|
|-2----2-----2---|---2-----2-----2-|-0---0-----0-----|-0-----0-(0)-(0)-(0)--|
|----------------|-----------------|-----------------|----------------------|
|----------------|-----------------|-----------------|----------------------|

|----------------|-----------------|------------------|-----------------|
|-3------3-----5-|-----5-----5-----|-3------3-----3h5-|-----5-----5-----|
|----0-----0-----|-0-----0-----0---|----0-----0-------|-0-----0-----0---|
|----------------|-----------------|------------------|-----------------|
|-3----3-----3---|---3-----3-----3-|-3----3-----3-----|---3-----3-----3-|
|----------------|-----------------|------------------|-----------------|

|-2------2-----3-|-----3-----3-----|-5-----3-----2---|---3------3p==2---0---|
|----0-----0-----|-0-----0-----0---|---0-----0-----0-|-----0----------------|
|----------------|-----------------|-----------------|----------------------|
|-2----2-----2---|---2-----2-----2-|-0---0-----0-----|-0-----0-(0)-(0)-(0)--|
|----------------|-----------------|-----------------|----------------------|
|----------------|-----------------|-----------------|----------------------|

|----------------|-----------------|----------------|---------------|
|-3------3-----5-|-----5-----5-----|-7------7-----5-|-(5)------(5)--|
|----0-----0-----|-0-----0-----0---|----0-----0-----|---------------|
|----------------|-----------------|----------------|---------------|
|-3----3-----3---|---3-----3-----3-|-5----5-----5-5-|-(5)------(5)--|
|----------------|-----------------|----------------|---------------|


 Chorus:
|------------------|--------------------|
|------------------|----------3---------|
|--------0-0-------|------------0-------|
|------2-----2---2-|--------0-----0---0-|
|----2---------2---|------2---------2---|
|--0---------------|---3----------------|
|
| (Guitar 2)
|------------------|--------------------|
|------------------|---3------3---3-3-3-|
|--0-----0---0-0-0-|---0------0---0-0-0-|
|--2-----2---2-2-2-|---0------0---0-0-0-|
|--2-----2---2-2-2-|---2------2---2-2-2-|
|--0-----0---0-0-0-|---3------3---3-3-3-|
|
| (Guitar 4)
|------------------|--------------------|
|-15---------------|-(15)---------------|
|------------------|--------------------|
|------------------|--------------------|
|------------------|--------------------|
|------------------|--------------------|

|--------3----------|--------3----2------|
|-----------3-------|------3----3----3---|
|------0------0---0-|----2-------------2-|
|----2----------2---|--0-----------------|
|--3----------------|--------------------|
|-------------------|--------------------|
|
|-------------------|--2-----3----3--2-0-|
|--3-----3----3-3-3-|--3-----3----3--3-3-|
|--0-----0----0-0-0-|--2-----2----2--2-2-|
|--2-----2----2-2-2-|--0-----0----0--0-0-|
|--3-----3----3-3-3-|--------------------|
|-------------------|--------------------|
|
|-------------------|--------------------|
|-13-------12-------|-10-------13---12---|
|-------------------|--------------------|
|-------------------|--------------------|
|-------------------|--------------------|
|-------------------|--------------------|

|------------------|------------------|--------3-----------|--------3---2------|
|------------------|-------3----------|----------3---------|------3---3---3----|
|--------0-0-------|---------0--------|------0-----0-----0-|----2------------2-|
|------2-----2---2-|-----0-----0----0-|----2----------2----|--0----------------|
|----2---------2---|---2----------2---|--3-----------------|-------------------|
|--0---------------|-3----------------|--------------------|-------------------|
|
|------------------|------------------|--------------------|--2-----3---3-2--0-|
|------------------|-3-----3---3--3-3-|--3-----3---3--3--3-|--3-----3---3-3--3-|
|--0-----0---0-0-0-|-0-----0---0--0-0-|--0-----0---0--0--0-|--2-----2---2-2--2-|
|--2-----2---2-2-2-|-0-----0---0--0-0-|--2-----2---2--2--2-|--0-----0---0-0--0-|
|--2-----2---2-2-2-|-2-----2---2--2-2-|--3-----3---3--3--3-|-------------------|
|--0-----0---0-0-0-|-3-----3---3--3-3-|--------------------|-------------------|
|
|------------------|------------------|--------------------|-------------------|
|------------------|------------------|-13-----------12p10-|-------------------|
|-12---------------|-9-----------12---|--------------------|-12-----------9h12-|
|------------------|------------------|--------------------|-------------------|
|------------------|------------------|--------------------|-------------------|
|------------------|------------------|--------------------|-------------------|

|------------------|--------------------|
|------------------|----------3---------|
|--------0-0-------|------------0-------|
|------2-----2---2-|--------0-----0---0-|
|----2---------2---|------2---------2---|
|--0---------------|---3----------------|
|
|------------------|--------------------|
|------------------|---3------3---3-3-3-|
|--0-----0---0-0-0-|---0------0---0-0-0-|
|--2-----2---2-2-2-|---0------0---0-0-0-|
|--2-----2---2-2-2-|---2------2---2-2-2-|
|--0-----0---0-0-0-|---3------3---3-3-3-|
|
|------------------|--------------------|
|------------------|--------------------|
|-12---------------|-(12)---------------|
|------------------|--------------------|
|------------------|--------------------|
|------------------|--------------------|

|--------3----------|--------3----2------|
|-----------3-------|------3----3----3---|
|------0------0---0-|----2-------------2-|
|----2----------2---|--0-----------------|
|--3----------------|--------------------|
|-------------------|--------------------|
|
|-------------------|--2-----3----3--2-0-|
|--3-----3----3-3-3-|--3-----3----3--3-3-|
|--0-----0----0-0-0-|--2-----2----2--2-2-|
|--2-----2----2-2-2-|--0-----0----0--0-0-|
|--3-----3----3-3-3-|--------------------|
|-------------------|--------------------|
|
|-------------------|--------------------|
|-13-------12-------|-10-------13---12---|
|-------------------|--------------------|
|-------------------|--------------------|
|-------------------|--------------------|
|-------------------|--------------------|

|------------------|------------------|--------3-----------|
|------------------|-------3----------|----------3---------|
|--------0-0-------|---------0--------|------0-----0-----0-|
|------2-----2---2-|-----0-----0----0-|----2----------2----|
|----2---------2---|---2----------2---|--3-----------------|
|--0---------------|-3----------------|--------------------|
|
|------------------|------------------|--------------------|
|------------------|-3-----3---3--3-3-|--3-----3---3--3--3-|
|--0-----0---0-0-0-|-0-----0---0--0-0-|--0-----0---0--0--0-|
|--2-----2---2-2-2-|-0-----0---0--0-0-|--2-----2---2--2--2-|
|--2-----2---2-2-2-|-2-----2---2--2-2-|--3-----3---3--3--3-|
|--0-----0---0-0-0-|-3-----3---3--3-3-|--------------------|
|
|------------------|------------------|--------------------|
|------------------|------------------|-15-----------13-12-|
|-12---------------|-9-----------12---|--------------------|
|------------------|------------------|--------------------|
|------------------|------------------|--------------------|
|------------------|------------------|--------------------|

|--------3---2------|-------------|---------|
|------3---3----3---|---0---------|--(0)----|
|----2------------2-|---0---------|--(0)----|
|--0----------------|---2---------|--(2)----|
|-------------------|---2---------|--(2)----|
|-------------------|---0---------|--(0)----|
|
|--2-----3---3--2-0-|-------------|---------|
|--3-----3---3--3-3-|---0---------|--(0)----|
|--2-----2---2--2-2-|---0---------|--(0)----|
|--0-----0---0--0-0-|---2---------|--(2)----|
|-------------------|---2---------|--(2)----|
|-------------------|---0---------|--(0)----|
|
|                       >
|-------------------|-------------|---------|
|-12----------------|-------------|---------|
|--------------12---|-(12)--------|-(12)----|
|-------------------|-------------|---------|
|-------------------|-------------|---------|
|-------------------|-------------|---------|


Verse 2:
|-2------2--------3-|--------3-----3-----|
|----0-----0--------|---0------0-----0---|
|-------------------|--------------------|
|-2----2------2-----|------2-----2-----2-|
|-------------------|--------------------|
|-------------------|--------------------|
|
| (Guitar 4)
|-------------------|--------------------|
|-------------------|--------------------|
|-9----------(9)-12-|-(12)---------------|
|-------------------|--------------------|
|-------------------|--------------------|
|-------------------|--------------------|


|--2------2---------3-|--------3-----3-----|
|-----0-----0---------|---0------0-----0---|
|---------------------|--------------------|
|--2----2-------2-----|------2-----2-----2-|
|---------------------|--------------------|
|---------------------|--------------------|
|
|---------------------|--------------------|
|-12----------(12)----|--------------------|
|------------------12-|-(12)---------------|
|---------------------|--------------------|
|---------------------|--------------------|
|---------------------|--------------------|


|--------------------|-------------------|
|--3------3--------5-|-------5-----5-----|
|-----0-----0--------|--0------0-----0---|
|--------------------|-------------------|
|--3----3-------3----|-----3-----3-----3-|
|--------------------|-------------------|
|
|  
                                   ~~~~
|------------------------------|---------------------|---------|
|-15b17---(15)---(15)---(15)---|-(15)----(15)--(15)--|-(15)----|
|------------------------------|---------------------|---------|
|------------------------------|---------------------|---------|
|------------------------------|---------------------|---------|
|------------------------------|---------------------|---------|
|
|--------------3------2--------|---------------------|---------|
|-----------3------3------3----|---0-----------------|--(0)----|
|-------2--------------------2-|---0-----------------|--(0)----|
|--0---------------------------|---2-----------------|--(2)----|
|------------------------------|---2-----------------|--(2)----|
|------------------------------|---0-----------------|--(0)----|
|
|                                  >
|------------------------------|---------------------|---------|
|-12---------------------------|---------------------|---------|
|------------------------12----|-(12)----------------|-(12)----|
|------------------------------|---------------------|---------|
|------------------------------|---------------------|---------|
|------------------------------|---------------------|---------|


 Outro:
			       (Guitar 1)
|-2------2-----3-|-----3-----3-----|-5-----3-----2---|---3------3p==2---0---|
|----0-----0-----|-0-----0-----0---|---0-----0-----0-|-----0----------------|
|----------------|-----------------|-----------------|----------------------|
|-2----2-----2---|---2-----2-----2-|-0---0-----0-----|-0-----0-(0)-(0)-(0)--|
|----------------|-----------------|-----------------|----------------------|
|----------------|-----------------|-----------------|----------------------|

|----------------|-----------------|----------------|---------------*|
|-3------3-----5-|-----5-----5-----|-7------7-----5-|-(5)------(5)--*|
|----0-----0-----|-0-----0-----0---|----0-----0-----|---------------*|
|----------------|-----------------|----------------|---------------*|
|-3----3-----3---|---3-----3-----3-|-5----5-----5-5-|-(5)------(5)--*|
|----------------|-----------------|----------------|---------------*|

End.
            
Submit corrections


        Lead Me Home lessons Hard to play? Try these video lessons and learn fast Lead Me Home lessons
        
↑ Back to top | Tablatures and chords for acoustic guitar and electric guitar, ukulele, drums are parodies/interpretations of the original songs. You may use it for private study, scholarship, research or language learning purposes only