» » »

Shadows Fall - Inspiration On Demand Tabs

Artists:  A B C D E F G H I J K L M N O P Q R S T U V W X Y Z # 

Inspiration On Demand Tabs

(ver. 1) Click to play this song!
Shadows Fall
 Rating:
4/5 (4 votes)

 Inspiration On Demand lessons Tabs too difficult? Try these video lessons and learn fast
 
                GREAT song very easy to play

Tunning: D tuning dropped to C

Intro/Riff 1
|-------------------------------------------------------|
|-------------------------------------------------------|
|-------3-3------5---5/7---------3-3--------------------|
|-------1-1------3---3/5---------1-1--------------------|
|-0-1-0-----0--0---0-------0-1-0-----0--0-3/5--0-0-5/7--|
|-0-1-0-----0--0---0-------0-1-0-----0--0-3/5--0-0-5/7--|

Lead
|-------------------------------------------------------|
|-------------------------------------------------------|
|----------12-------------------12/14---17-15-14--------|
|-12-14-15----15-14----14-15-14------------------15/17--|
|-------------------------------------------------------|
|-------------------------------------------------------|

Verse
|-------0-------------0-------------0------------5------|
|-----6---6---------6---6---------6---6--------6---6----|
|---7-------7-----7-------7-----7-------7----7-------7--|
|-0-------------0-------------0------------8------------|
|-------------------------------------------------------|
|-------------------------------------------------------|etc

Chorus
|--------------------------------------------------------|
|--------------------------------------------------------|
|---------------5/7------101010/9/101010/12-----12/14----|
|--------------------------------------------------------|
|-1p0-0-5p0-0-1-3/5strum-8-8-8-/7/8-8-8-/10strum10/12----|
|-1p0-0-5p0-0-1------------------------------------------|

|------------------------------------|
|------------------------------------|
|-5/7------101010/9/1010-------------|
|-------------------------10/8-------|
|-3/5strum-8-8-8-/7/8-8--------------|
|-------------------------10/8strum--|

|-------------------------------------------------------|
|-------------------------------------------------------|
|-------3-3------5---5/7---------3-3--------------------|
|-------1-1------3---3/5---------1-1--------------------|
|-0-1-0-----0--0---0-------0-1-0-----0--0-3/5--0-0-5/7--|
|-0-1-0-----0--0---0-------0-1-0-----0--0-3/5--0-0-5/7--|

|-------------------------------------------------------|
|-------------------------------------------------------|
|-------------------------------------------------------|
|3------5-----------------------------------------------|
|1strum-3strum-1----------------------------------------|
|--------------1strum-----------------------------------|


Breakdown
|-------------------------------------------------------------------|
|-------------------------------------------------------------------|
|-------------------------------------------------------------------|
|-------------------------------------------------------------------|
|-3-5-6---3-5-6----3p2-0--8p7-0--3h5-1p0-0-0-0-0-0-0-0--------------|
|-3-5-6---3-5-6----3p2-0--8p7-0--3h5-1p0-0-0-0-0-0-0-0--------------|

|--------------------------------------------------------------------------|
|--------------------------------------------------------------------------|
|--------------------------------------------------------------------------|
|--------------------------------------------------------------------------|
|-3p2-0--8p7-0-3h5-1p0-0-0-3-5-6---3p2-0--8p7-0--3h5--3-5-6--3-5-6---------|
|-3p2-0--8p7-0-3h5-1p0-0-0-3-5-6---3p2-0--8p7-0--3h5--3-5-6--3-5-6---------|

Solo (with delay)
|-----------------------------------------------------------------------|
|----------------------------------------------------------------20-22--|
|----------------------------15-17-19-------------------17-20-21--------|
|-------------------15-17-18-------------------17-20-21-----------------|
|----------15-17-18-------------------17-20-21--------------------------|
|-17-19-20--------------------------------------------------------------|

|-22p17-17-17-22p17-17-17-22p17-17-17-22p-17-17-17-22p17-17-17-20p17-17-17-|
|-----------------------------------------------------------------------17^|
|--------------------------------------------------------------------------|
|--------------------------------------------------------------------------|
|--------------------------------------------------------------------------|
|--------------------------------------------------------------------------|
tremolo picking                                              wide vibrato

|-------------------------------------------------------------------|
|-----13h15p13h15p13----13h15p13h15p13----13h15p13h15p13/-----------|
|-/14----------------14----------------14---------------------------|
|-------------------------------------------------------------------|
|-------------------------------------------------------------------|
|-------------------------------------------------------------------|

|-----------------------------------------------------------------|
|-/15h18p15h18p15-----15h18p15h18p15----15h18p15h18p15/-----------|
|------------------17----------------17---------------------------|
|-----------------------------------------------------------------|
|-----------------------------------------------------------------|
|-----------------------------------------------------------------|

|--------------------------------------------------------------------------|
|-/17h20p17h20p17----17h20p17h20p17----17h20p17h20p17--22p20p17-----------20p18p1720^^|
|-----------------19----------------19-------------------------------------|
|--------------------------------------------------------------------------|
|--------------------------------------------------------------------------|
|--------------------------------------------------------------------------|

|-------------------------------------------------------------------|
|----------------------------------------13^(15)-15^(17)------------|
|-----------------------/14-15-14~-----------------------15-17------|
|-12-14-15-15-14-10-12~------------12-12----------------------------|
|-------------------------------------------------------------------|
|-------------------------------------------------------------------|

Outro LEad
|-------------------------------------------------------|
|-------------------------------------------------------|
|----------12-------------------12/14---17-15-14--------|
|-12-14-15----15-14----14-15-14------------------15/17--|
|-------------------------------------------------------|
|-------------------------------------------------------|

Outro Harmony: 2 guitars

Gtr 1
|-------------------------------------------------------|
|-------------------------------------------------------|
|----------12-------------------12/14---17-15-14--------|
|-12-14-15----15-14----14-15-14-------------------------|
|-------------------------------------------------------|
|-------------------------------------------------------|

Gtr 2
|---------------------------------------------------------------|
|--------------------------------------15-13--------------------|
|-10-12-14-15-14-12----12-14-12-14/17--------15---------3-------|
|-------------------------------------------------------1-------|
|-------------------------------------------------1p0-0---0-1-0-|
|-------------------------------------------------1p0-0---0-1-0-|
            
Submit corrections


        Inspiration On Demand lessons Hard to play? Try these video lessons and learn fast Inspiration On Demand lessons
        
↑ Back to top | Tablatures and chords for acoustic guitar and electric guitar, ukulele, drums are parodies/interpretations of the original songs. You may use it for private study, scholarship, research or language learning purposes only